Gametabs
Home
Tabs
Random

Main Theme "Nananana"

Average rating: 5.000

4 ratings

Composer:

Tabber:

Style:

Instrument:

Created: March 28, 2010 at 12:00 AM

            Katamari Damacy Main Theme "Nananana", 150 BPM

The portion tabbed starts at 29 seconds. 
 
e|-----------------------|-----------------------|-----------------------|
B|--------------0--2--3--|--2--------------------|-----------------------|
G|--2--------L-----------|-----2---------2-------|--0----2----0----------|
D|-----------------------|----------2---------2--|---------------4----2--|
A|-----------------------|-----------------------|-----------------------|
E|-----------------------|-----------------------|-----------------------|

 
e|-----------------------|-----------------------|-----------------------|
B|--------------0--2--3--|--2--------------------|-----------------------|
G|--2--------L-----------|-----2---------2-------|--0----2----0----------|
D|-----------------------|----------2---------2--|---------------4----2--|
A|-----------------------|-----------------------|-----------------------|
E|-----------------------|-----------------------|-----------------------|


e|-----------------------|-----------------------|-----------------------|
B|-----------------------|--------------0--2--3--|--2--------------------|
G|-----------------------|--2--------L-----------|-----2---------2-------|
D|--L--0---------0----2--|-----------------------|----------2---------2--|
A|----------4------------|-----------------------|-----------------------|
E|-----------------------|-----------------------|-----------------------|

                
e|-----------------------|-----------------------|-----------------------|
B|-----------------------|--------------0--2--3--|--2--------------------|
G|--0----2----0----------|--2--------L-----------|-----2---------2-------|
D|---------------4----2--|-----------------------|----------2---------2--|
A|-----------------------|-----------------------|-----------------------|
E|-----------------------|-----------------------|-----------------------|

 
e|-----------------------|-----------------------|
B|-----------------------|-----------------------|
G|--0----2----0----------|-----------------------|
D|---------------4----2--|--L--0---------0----2--|
A|-----------------------|----------4------------|
E|-----------------------|-----------------------|



Tablature Legend
----------------
L - tied note


        
Comments

No comments yet