Gametabs
Home
Tabs
Random

White Memory

Average rating: 5.000

2 ratings

Composer:

Tabber:

Style:

Instrument:

Created: June 23, 2018 at 12:00 AM

            Title: White Memory
SubTitle: Kara No Shoujo
Artist: MANYO
Tabber: Mitch Jackson
Tempo = 55
T/S = 3/4


g = grace note


      ^                      ^                      ^  
      H           Q          Q.       Q.            Q     H                Q.       Q.
D ||----------------------|----------------------|--3-------------------|----------------------|
A ||--6-------------------|--5--------6----------|--1-----1-------------|-----------1----------|
F ||o-7-------------------|--3-------------------|--2-------------------|--2-------------------|
C ||o-8-----------8-------|--5-------------------|----------------------|--3-------------------|
G ||----------------------|--3-------------------|----------------------|----------------------|
C ||--5-------------------|----------------------|--3-------------------|--L-------------------|

                            ^                     ^                      P.H-->
     Q.       E  E  E       Q.       E  Q         g H.                    S S H           E    
  |----------------------|--------------3-------|---3------------------|-----<3>----------L----|
  |--6--------------6----|--5--------6----------|-1--------------------|---<1>-----------------|
  |--7-------------------|--3--------3----------|-2--------------------|-<2>-------------------|
  |--8--------5--8-------|--5-------------------|----------------------|-----------------------|
  |----------------------|--3-------------------|----------------------|-----------------------|
  |--5-------------------|----------------------|---3------------------|-----------------------|

                                                                         ^
     H           Q          Q.       Q.            H.                    g Q.       Q.
  |--2-------------------|--1--------0----------|--0-------------------|---0-------------------|
  |--3-------------------|--0-------------------|----------------------|---0--------3----------|
  |--4-------------------|--2-------------------|--5-------------------|-2---------------------|
  |--5-----------5-------|--2-------------------|--3-------------------|-3---------------------|
  |----------------------|--0-------------------|--5-------------------|-----------------------|
  |--2-------------------|----------------------|----------------------|---5-------------------|

                                                   ^                      P.H----->                                                    
     H           E  E       Q..       Q     S      H.                     E.  E.  Q.
  |--2--------------2----|--1-------------------|--0-------------------|-<0>------------------|
  |--3-------------------|--2---------2-----L---|----------------------|----------------------|
  |--4-------------------|--2-------------------|--5-------------------|-----<0>--------------|
  |--5-----------5-------|--2-------------------|--3-------------------|----------------------|
  |----------------------|--0-------------------|--5-------------------|---------<3>----------|
  |--2-------------------|----------------------|----------------------|----------------------|


     H           Q          Q.       Q.            H.                     Q.       Q.
  |----------------------|--5--------3----------|--3-------------------|----------------------|
  |--6-------------------|--5-------------------|--5-------------------|----------------------|
  |--7-------------------|--3-------------------|--2-------------------|--5--------2----------|
  |--8-----------8-------|----------------------|----------------------|----------------------|
  |----------------------|--3-------------------|----------------------|----------------------|
  |--5-------------------|----------------------|--3-------------------|----------------------|

                                                                              
     H           Q          Q.       Q.            Q.       Q     E       Q.       Q.
  |----------------------|--0--------3----------|--3-------------------|----------------------|
  |--6-------------------|--3-------------------|--5-------------------|----------------------|
  |--7-------------------|--3-------------------|--2--------5-----0----|----------------------|
  |--8-----------8-------|----------------------|----------------------|--2-------------------|
  |----------------------|--3-------------------|----------------------|-----------3----------|
  |--5-------------------|----------------------|--3-------------------|----------------------|


     H           Q          Q.       Q.            H.                     Q.       Q.
  |--2-------------------|--1--------0----------|--0-------------------|----------------------|
  |--3-------------------|--0-------------------|--1-------------------|--0--------3----------|
  |--4-----------4-------|--2--------0----------|--2-------------------|--2-------------------|
  |--5-------------------|--2-------------------|--3-------------------|--0-------------------|
  |-(2)------------------|--0-------------------|-(0)------------------|----------------------|
  |--2-------------------|----------------------|--0-------------------|--5-------------------|

                                                  ^                                        
     H           Q          Q.       E  Q         g H.                     H.
  |--2-------------------|--1--------0----------|---0-------------------|--L-------------------|
  |--3-------------------|--2-----------0-------|-1---------------------|--L-------------------|
  |--4-----------4-------|--2--------0----------|-2---------------------|--L-------------------|
  |--5-------------------|--2-------------------|-3---------------------|--L-------------------|
  |-(2)------------------|--0-------------------|---0-------------------|--L-------------------|
  |--2-------------------|----------------------|---0-------------------|--L-------------------|

     ^
     H.                     H.                      H.     
  |--12------------------|--L-------------------||--L-------------------||
  |--13------------------|--L-------------------||--L-------------------||
  |--14------------------|--L------------------o||--L-------------------||
  |--15------------------|--L------------------o||--L-------------------||
  |--0-------------------|--L-------------------||--L-------------------||
  |--0-------------------|--L-------------------||--L-------------------||

        
Comments

No comments yet