Gametabs
Home
Tabs
Random

Neanis no Tamago

Average rating: 5.000

1 ratings

Composer:

Tabber:

Style:

Instrument:

Created: June 16, 2015 at 12:00 AM

            Title: Neanis no Tamago
SubTitle: Kara No Shoujo
Artist: Teratani Tomomi
Tabber: Mitch Jackson
Tempo = 83
T/S = 3/4


      H           Q          Q     H                H           Q          Q     H
D#||----------------------|----------------------|--------------6-------|--------8-------------|
A#||--8-------------------|--6-----4-------------|--8-------------------|--6-------------------|
F#||o-5-----------5-------|--5-------------------|--5-------------------|--7-------------------|
C#||o-6-------------------|--0-------------------|--6-------------------|----------------------|
G#||----------------------|----------------------|----------------------|----------------------|
D#||--4-------------------|--3-------------------|--4-------------------|--8-------------------|

                                                   ^
     H           Q          Q     Q     Q          H.                     H.
  |----------------------|----------------------|----------------------|--2-------------------|
  |--8-----------4-------|--3-------------------|----------------------|--0-------------------|
  |--5-------------------|--5-----3-------------|--0-------------------|----------------------|
  |--6-------------------|--------------3-------|--4-------------------|----------------------|
  |----------------------|--5-------------------|--2-------------------|----------------------|
  |--4-------------------|--3-------------------|--0-------------------|----------------------|

  
     H           Q          Q     H                H           Q          Q     H
  |----------------------|--6-----6-------------|----------------------|--6-----6-------------|   
  |--------------4-------|--6-----4-------------|--------------4-------|--6-------------------|      
  |--5-------------------|----------------------|--5-------------------|--7-----8-------------|
  |--5-------------------|--0-------------------|--5-------------------|----------------------|
  |--6-------------------|----------------------|--6-------------------|----------------------| 
  |--4-------------------|--3-------------------|--4-------------------|--8-------------------|

                                                   ^
     H           Q          Q     Q     Q          E  E  E  E  E  E       E  E  E  E  Q
  |----------------------|----------------------|-----------------2----|----------------------|
  |--6-----------4-------|--3-------------------|--------------0-------|--------------0-------|
  |--5-----------5-------|--5-----3-------------|--0--------0----------|-----------0----------|
  |----------------------|--------5-----3-------|--4-----4-------------|--------4-------------|
  |--6-------------------|--5-----------5-------|--2--2----------------|-----2----------------|
  |--4-------------------|--3-------------------|--0-------------------|--0-------------------|

     ^                                             ^
     E  E  H                Q     Q     Q          E  E  H                Q     Q     Q
  |--3-----3-------------|--1-----3-----6-------|--------3-------------|----------------------|
  |--4--1----------------|----------------------|--3-------------------|----------------------|
  |--1-------------------|----------------------|--3--5----------------|--3-----5-----3-------|
  |----------------------|----------------------|--5-------------------|----------------------|
  |--3-------------------|----------------------|--3-------------------|----------------------|
  |--1-------------------|----------------------|----------------------|----------------------|

     ^                                             ^
     E  E  H                Q     Q     Q          E  E  H                Q     Q     Q
  |--3-----3-------------|--1-----3-----6-------|--------3-------------|--------------6-------|
  |--4--1----------------|-(4)---(1)------------|--3-------------------|----------------------|
  |--1-------------------|----------------------|--3--5----------------|--3-----5-------------|
  |----------------------|----------------------|--5-------------------|----------------------|
  |--3-------------------|----------------------|--3-------------------|----------------------|
  |--1-------------------|----------------------|----------------------|----------------------|

     ^                                             ^
     E  E  H                Q     Q     Q          E  E  H                H           Q
  |--3-----3-------------|--1-----3-----6-------|--------3-------------|----------------------|
  |--4--1----------------|-(4)------------------|--3-------------------|----------------------|
  |--1-------------------|----------------------|--3--5----------------|--3-------------------|
  |--3-------------------|----------------------|--5-------------------|--------------5-------|
  |----------------------|----------------------|--3-------------------|----------------------|
  |--1-------------------|----------------------|----------------------|----------------------|

     ^                                             ^ 
     E  E  H                H.                     E  E  H                H.
  |--------3-------------|--0-------------------|--------3-------------|----------------------|
  |--1-------------------|----------------------|----------------------|----------------------|
  |--2--2----------------|--2-------------------|--5-------------------|--3-------------------|
  |--2-------------------|----------------------|----------------------|----------------------|
  |--0-------------------|----------------------|--6--6----------------|----------------------|
  |----------------------|----------------------|--4-------------------|----------------------|

     ^                                             ^          
     H.                     Q     Q     Q          Q     Q     Q          Q     Q     Q
  |----------------------|--------------6-------|--8-----------0-------|--0-----0-----10------|
  |----------------------|--6-----8-------------|--8-----------8-------|--------8-----8-------|
  |--8-------------------|--7-------------------|--9-----9-------------|----------------------|
  |----------------------|----------------------|--10------------------|--10------------------|
  |--8-------------------|----------------------|--0-------------------|----------------------|
  |--6-------------------|----------------------|----------------------|----------------------|

     ^                                             v
     Q.       Q.            Q     E  E  E  E       Q     H                H           Q
  |--3-------------------|----------------------|--------6-------------|----------------------|
  |-----------4----------|--6-----6-----4--6----|--3-------------------|--4-----------6-------|
  |--5--------0----------|--3--------3----------|--3-------------------|--3-------------------|
  |----------------------|----------------------|--5-------------------|----------------------|
  |--6-------------------|----------------------|--5-------------------|----------------------|
  |--4-------------------|----------------------|--3-------------------|----------------------|

     ^                                             ^
     E  E  E  E  E  E       E  E  E  E  Q          Q     Q     Q          Q     Q     Q
  |--------------3-------|--------------3-------|--8-----------0-------|--0-----0-----10------|
  |--4--------3----------|--4--------3----------|--8-----------8-------|--------8-----8-------|
  |--3-----5-------------|--3-----5-------------|--9-----9-------------|----------------------|
  |--5--5----------------|-----5----------------|--10------------------|--10------------------|
  |--3-------------------|--3-------------------|--0-------------------|----------------------|
  |-----------------3----|----------------------|----------------------|----------------------|

     ^                                             v                      ^  
     Q.       Q.            Q     E  E  E  E       Q     Q     Q          H           Q
  |--3-------------------|----------------------|--------3-------------|----------------------|
  |-----------4----------|--6-----6-----4--6----|----------------------|--4-----------6-------|
  |--5--------0----------|--3--------3----------|--0-----------3-------|--5-------------------|
  |----------------------|----------------------|--3-----------3-------|----------------------|
  |--6-------------------|----------------------|--3-------------------|--6-------------------|
  |--4-------------------|----------------------|--1-----------3-------|--4-------------------|

                                                                                         T
                            ^                      ^                                     |-3-|
     Q     Q     Q          H.                     H.                     Q     E  E  E  S S S
  |--------3-------------|--6-------------------|----------------------|-------------------------|
  |----------------------|--4-------------------|--8-------------------|--3-----3--4--6--8p6p4p--|
  |--0-----------3-------|--5-------------------|--5-------------------|--5----------------------|
  |--3-----------3-------|----------------------|--6-------------------|--5----------------------|
  |--3-------------------|--6-------------------|----------------------|--3----------------------|
  |--1-----------3-------|--4-------------------|----------------------|-------------------------|

       T           T   
     |-3-| |-3-| |-3-| |-3-|     
     S S S S S S S S S S S S Q          H.                     H.
  |----------------------------------|----------------------|----------------------|
  |--3h4h6h8p6p4p3h4h6h8p6p4p3-------|----------------------|--1-------------------|
  |----------------------------------|--0-------------------|--0-------------------|
  |----------------------------------|--1-------------------|----------------------|
  |----------------------------------|--3-------------------|----------------------|
  |----------------------------------|--4-------------------|----------------------|

                                     |--3--|             T                    ^
     H.                     Q     E  E  E  E  E       E  S S H                E.  E  Q.       S
  |----------------------|-----------------3-------|-----------------------|------6---------------||
  |--4-------------------|--L-----3--4--6----------|-----8p6p4-------------|------6---------------||
  |--7-------------------|--L----------------------|-----------------------|--7------7--------L--o||
  |--5-------------------|--L-----------------5----|--5--------------------|--8------------------o||
  |--3-------------------|--L----------------------|--6--------------------|--8-------------------||
  |----------------------|-------------------------|--4--------------------|--6-------------------||
                                         
     
     H.
  |--L-------------------||
  |--L-------------------||
  |--L-------------------||
  |--L-------------------||
  |--L-------------------||
  |--L-------------------||


        
Comments

No comments yet