Gametabs
Home
Tabs
Random

Purgatorio

Average rating: 5.000

2 ratings

Composer:

Tabber:

Style:

Instrument:

Created: May 07, 2017 at 12:00 AM

            Title: Purgatorio
SubTitle: Kara No Shoujo - The Second Episode
Artist: MANYO
Tabber: Mitch Jackson
Tempo = 71
T/S = 4/4

TUNING = Down 1/2 Step

LEGEND:
-------------
<?> = Pinch Harmonic
(?) = Ghost Note
g = Grace Note Before Beat
h = Hammer On


There is one really nasty stretch in bars 13 and 17. I can just make this stretch and i have big hands, so i've
put an alternative method to play those bars at the bottom of the tab for anybody who cant stretch that far.

If the pinch harmonics are too hard to play for some, playing them as normal notes sounds just as nice and is easier :) 



      W                            W                            H           H                H           H
D#||--2-------------------------|--3-------------------------|--2-----------0-------------|----------------------------|
A#||--0-------------------------|--1-------------------------|--0-------------------------|--3-----------1-------------|
F#||o-0-------------------------|--0-------------------------|--0-------------------------|--0-------------------------|
C#||o---------------------------|----------------------------|----------------------------|----------------------------|
G#||----------------------------|----------------------------|----------------------------|----------------------------|
D#||--0-------------------------|--1-------------------------|--0-------------------------|--1-------------------------|

     ^                    
     E  E  E  Q     E  E  E       E  E  E  Q     E  E  E       E  E  E  Q     E  Q          E  E  E  E  E  E  E  E
  |--2--------------------0----|-----------------------0----|--2-------------------------|----------------------------|
  |--0-------<3>---------------|--3-------<1>-------3-------|--0-------<3>-------3-------|--3-------<1>-------3-------|
  |--0----<0>----------0-------|--0----<0>------------------|--0----<0>------------------|--0----<0>----0--------2----|
  |----<4>----------2----------|----<3>----------3----------|----<4>----------2----------|----<3>----------3----------|
  |----------------------------|----------------------------|----------------------------|----------------------------|
  |--0-------------------------|--1-------------------------|--0-------------------------|--1-------------------------|

     ^       
     E  E  E  Q     E  E  E       E  E  E  E  E  E  Q          E  E  E  Q     E  E  E       H           H
  |--2-----------------0--2----|--3-------------------------|--2-------------------------|----------------------------|
  |--0-------<3>---------------|--1-------<1>---------------|--0-------<3>-------3-------|--1-------------------------|
  |--0----<0>-------0----------|--0----<0>----0-----2-------|--0----<0>----------0--0----|--0-----------2-------------|
  |----<4>---------------------|----<3>----------3----------|----<4>----------2----------|--------------3-------------|
  |----------------------------|----------------------------|----------------------------|----------------------------|
  |--0-------------------------|--1-------------------------|--0-------------------------|--1-------------------------|

                                                                     
     E  E  E  E  E  E  E  E       E  E  E  E  E  E  E  E       E  E  E  E  E  E  E  E       E  E  E  E  E  E  E  E
  |--0-----7-----6-----3-------|--0-----2-----0-----3-------|--2-----------0-------------|--2-----------3--------0----|
  |-(0)---(3)---------(1)------|-----0-------------(1)------|--0-------------------------|--0-----------------3-------|
  |-----0-----0-----0-----0----|-----0-----0-----0-----0----|-----------0-----------0----|-----------0--------0-------|
  |----------------------------|----------------------------|--------2-----------3-------|--------2-----------3-------|
  |----------------------------|----------------------------|-----2-----------3----------|-----2-----------3----------|
  |--0-----------1-------------|--0-----------1-------------|--0-----------1-------------|--0-----------1-------------|

                                                          
     E  E  E  E  E  E  E  E       E  E  E  E  E  E  E  E       E  E  E  E  E  E  E  E       E  E  E  E  E  E  E  E      
  |--0-----7-----6-----3-------|--0-----2-----3-----3-------|--2-----------0-------------|--2--------0--3-----5-------|
  |-(0)---(3)---------(1)------|-----0-------------(1)------|--0-------------------------|--0-------------------------|
  |-----0-----0-----0-----0----|-----0-----0-----0-----0----|-----------0-----------0----|-----------0-----------0----|
  |----------------------------|----------------------------|--------2-----------3-------|--------2-----------3-------|
  |----------------------------|----------------------------|-----2-----------3----------|-----2-----------3----------|
  |--0-----------1-------------|--0-----------1-------------|--0-----------1-------------|--0-----------1-------------|

     ^                                                         ^               
     E  E  E  Q     E  E  E       E  E  E  Q     E  Q          E  E  E  Q     E  Q          E  E  E  E  H
  |--2-------------------------|----------------------------|--2--------3--------5-------|--0-------------------------|
  |--0--------3-----------3----|--3--------1----------------|--0--------3----------------|-----------1--1-------------|
  |--2-----0-----------2-------|--2-----0-----------2-------|--2-----0-----------2-------|--2-----0-------------------|
  |-----4-----------2----------|-----3-----------3----------|-----4-----------2----------|-----3----------------------|
  |----------------------------|----------------------------|----------------------------|--------------3-------------|
  |--0-------------------------|--1-------------------------|--0-------------------------|--1-------------------------|

                                                         
     E  E  E  E  E  E  E  E       S S E  E  E  E  E  E  E       E  E  E  S S S S E  E  E       E  E  E  E  E  E  E  E
  |--0-----7-----------5--3----|--2h3----0-----0-----0--2----|--3-----5--3-5-5-3-2--0-------|----------------------------|
  |--------------7-------------|---------------1-----1-------|--3-----3------3---------0----|--0-----3--------------1----|
  |--0-----------7-------------|------2-----2-----2-----2----|-----2-----2-------2----------|-----2-----2--2-----2-------|
  |-----7-----7-----7----------|-----------------------------|------------------------------|-----------------3----------|
  |----------------------------|-----------------------------|------------------------------|----------------------------|
  |--0----------(0)------------|--1-----------(1)------------|--0-----------(0)-------------|--1----------(1)------------|

                                                                ^
     E  E  E  E  E  E  E  E       E  S S E  E  E  E  E  E       E  E  E  E  E  E  E  E       E  E  E  E  H
  |--5-----------7-------------|--3--2h3-0-----0-----0-------|--7-----10-9--7-------------|--------0-----0-------------|
  |--------------0-----7-------|---------------1-----1-------|--7-----7-----7-----7--0----|--0-----1-----1-------------|
  |--2--------2--------7-------|-----2------2-----2-----2----|--7-----7-----7-----7-------|-----2-----2----------------|
  |--------2--------7-----7----|-----------------------------|-----7-----7-----7----------|----------------------------|
  |-----2----------------------|-----------------------------|----------------------------|--3-------------------------|
  |--0----------(0)------------|--1-----------(1)------------|--0----------(0)------------|--1-------------------------|

  Play softly from here on --->
     ^                                                        g
     Q     E  Q     E  E  E       Q     Q     H               T E  E  E  Q     E  E  E       E  E  Q     H
  |--0--------0----------------|--0-------------------------|---0--------0----------------|--5-----3-------------------|
  |--------3--------------3----|--------3-------------------|---0-----3--------------3----|--------------3-------------| 
  |--2-----------------2-------|--2-----------2-------------|-2-------------------2-------|----------------------------|
  |--4--------------4----------|--3-------------------------|------4-----------4----------|-----3----------------------|
  |--2-------------------------|--1-------------------------|---2-------------------------|--1-------------------------|
  |----------------------------|----------------------------|-----------------------------|----------------------------|

                                  ^                                              
     E  E  E  Q     E  E  E       E  E  Q     Q     Q          Q     E  E  H                W
  |--0--------0----------------|--0-------------------------|----------------------------|----------------------------||
  |--------3--------------3----|--------3-------------------|----------------------------|----------------------------||
  |--------4-----------2-------|--2-----------2-----0-------|-------<0>----7-------------|-<7>-----------------------o||
  |-----4-----------4----------|-----3----------------------|--7--------6----------------|--L------------------------o||
  |--2-------------------------|--1-------------------------|--6-------------------------|--L-------------------------||
  |----------------------------|----------------------------|--4-------------------------|--L-------------------------||


     W
  |----------------------------||
  |----------------------------||
  |--L-------------------------||
  |--L-------------------------||
  |--L-------------------------||
  |--L-------------------------||


BARS 13 , 17 ALTERNATIVE :-


     E  E  E  E  E  E  E  E      
  |--0-----7-----------3-------|
  |-(0)---(3)---------(1)------|
  |-----0-----0--3--0-----0----|
  |----------------------------|
  |----------------------------|
  |--0-----------1-------------|

        
Comments

No comments yet