Gametabs
Home
Tabs
Random

Impatience

Average rating: 4.667

3 ratings

Composer:

Tabber:

Style:

Instrument:

Created: October 14, 2013 at 12:00 AM

            Title: Impatience
SubTitle: Kamisama No Inai Nichiyoubi
Artist: Hiromi Mizutani
Tabber: Mitch Jackson
Tempo = 75



     Q     Q     Q     Q          Q     Q     Q     Q          Q     Q     Q     Q          Q     Q     Q     Q        
C |--7-----7-----6-----6-------|----------------------------|--7-----7-----6-----6-------|----------------------------|
A |--7-----7-----7-----7-------|--7-----7-----7-----7-------|--7-----7-----7-----7-------|--7-----7-----7-----7-------|
F |--9-----9-----9-----9-------|--9-----9-----9-----9-------|--9-----9-----9-----9-------|--9-----9-----9-----9-------|
C |----------------------------|----------------------------|----------------------------|----------------------------|
G |--9-------------------------|----------------------------|--9-------------------------|----------------------------|
C |----------------------------|----------------------------|----------------------------|----------------------------|



     Q     Q     Q     Q          Q     Q     Q     Q          Q     Q     Q     Q          Q     Q     Q     E  E     
  |--7-----7-----6-----6-------|----------------------------|--7-----7-----6-----6-------|----------------------------|
  |--7-----7-----7-----7-------|--7-----7-----7-----7-------|--7-----7-----7-----7-------|--7-----7-----7-----0-------|
  |--9-----9-----9-----9-------|--9-----9-----9-----9-------|--9-----9-----9-----9-------|--9-----9-----9--------6----|
  |--0-------------------------|----------------------------|--0-------------------------|----------------------------|
  |----------------------------|----------------------------|----------------------------|----------------------------|
  |----------------------------|----------------------------|----------------------------|----------------------------|



     E  E  E  E  Q     E  E       Q     Q     Q     Q          E  E  E  E  Q     Q          Q     Q     Q     E  E     
  |--4----------(6)------------|-------(4)---(4)------------|-------------(6)---(6)------|-(4)---(4)---(4)------------|
  |--------------------5--7----|-------(5)---(5)----5-------|----------------------------|-(5)---(5)---(5)----0--2----|
  |----------------------------|--6-------------------------|--4--------6----------------|----------------------------|
  |--------4--6----------------|----------------------------|--------6--7----------------|----------------------------|
  |-----4----------------------|----------------------------|-----4----------------------|----------------------------|
  |--4-------------------------|----------------------------|--4-------------------------|----------------------------|



     E  E  E  E  Q     E  E       Q     Q     Q     E  E       E  E  E  E  Q     Q          Q     Q     Q     E  E     
  |--4----------(6)------------|-------(4)---(4)------------|-------------(6)---(6)------|-(4)---(4)---(4)------------|
  |-------------(7)----5--7----|-------(5)---(5)----5--0----|--0-----2----(7)---(7)------|-(5)---(5)---(5)----0-------|
  |----------------------------|--6-------------------------|----------------------------|-----------------------6----|
  |--------2--4----------------|----------------------------|--------2--4----------------|----------------------------|
  |-----0----------------------|----------------------------|-----0----------------------|----------------------------|
  |--0-------------------------|----------------------------|--0-------------------------|----------------------------|

                                                          

     E  E  E  E  Q     E  E       Q     Q     Q     Q          E  E  E  E  Q     Q          Q     Q     Q     Q        
  |----------------------------|----------------------------|----------------------------|----------------------------|
  |-------------(9)------------|--10----------------9-------|--10---------(9)---(9)------|-(7)---(7)---(7)------------|
  |--11---------(11)---9--11---|-------(11)--(11)-----------|-----------11(11)--(11)-----|-(9)---(9)---(9)----9-------|
  |--------9--11---------------|----------------------------|--------9--11---------------|----------------------------|
  |-----9----------------------|----------------------------|-----9----------------------|----------------------------|
  |--9-------------------------|----------------------------|--9-------------------------|----------------------------|

           

     Q     Q     Q     Q          Q     Q     Q     Q          Q     Q     Q     Q          Q     Q     H              
  |--7-----7-----6-----6-------|----------------------------|--7-----7-----6-----6-------|----------------------------|
  |--7-----7-----7-----7-------|--7-----7-----7-----7-------|--7-----7-----7-----7-------|--7-----7-----7-------------|
  |--9-----9-----9-----9-------|--9-----9-----9-----9-------|--9-----9-----9-----9-------|--9-----9-----9-------------|
  |----------------------------|----------------------------|----------------------------|----------------------------|
  |--9-------------------------|----------------------------|--9-------------------------|----------------------------|
  |----------------------------|----------------------------|----------------------------|----------------------------|

               
     ^                            ^                            ^      
     E  E  E  E  Q.       E       E  E  E  E  H                E  E  E  E  E  E  E  E       E  E  E  E  E  E  Q        
  |--7-----6-------------------|----------------------------|--4-----2----------(2)-2----|-----------7--6-------------|
  |--5-----------5-------------|--5--7--7-------------------|--3-----3-------(2)---------|-----------------5----------|
  |--4--------6-----------6----|--7--------6L-L-------------|--------4-----4--------4----|--6--------6--4-----4-------|
  |----------------------------|-----6--7-------------------|-----4-----4----------------|--------4--------6----------|
  |--4--7----------------------|--5-------------------------|--2-------------------------|-----4--------------7-------|
  |----------------------------|----------------------------|----------------------------|--4-------------------------|

                     
     ^                            ^                                                         ^ 
     E  E  E  E  Q     Q          E  E  E  E  E  E  E  E       E  E  E  Q     E  E  E       E  E  Q     Q     Q        
  |--------------4-------------|--7-----------------6--7----|--4-------------------------|--6-----------------6-------|
  |--3--------3----------------|--7-------------------------|----------------------------|--5-------------------------|
  |--2-----4-----------4-------|--6-----6--------6----------|-----------------------2----|--------6-----4-------------|
  |-----4----------------------|-----------7----------------|--------2--4-----2--4-------|-----6----------------------|
  |--2-------------------------|-----4--------7-------------|-----0-----5----------------|--4-------------------------|
  |----------------------------|--4-------------------------|--0-------------------------|----------------------------|

                                                       

     E  E  E  E  E  E  E  E       W                            Q     Q     E  E  Q          Q     Q     Q     Q        
  |-----------------------9----|----------------------------|--7-----7-----6-----6-------|----------------------------|
  |--10----------------10------|----------------------------|--7-----7-----7-----7-------|--7-----7-----7-----7-------|
  |-----------------11---------|-<11>-----------------------|--9-----9-----9-----9-------|--9-----9-----9-----9-------|
  |--------9--11-13------------|----------------------------|----------------------------|----------------------------|
  |-----9----------------------|----------------------------|--9--------------9----------|----------------------------|
  |--9-------------------------|----------------------------|----------------------------|----------------------------|

                               |-----------RALL----------> 50BPM
                                                    ^
     E  E  Q     Q     Q          Q     Q     Q     Q          W                           
  |--7-----7-----6-----6-------|--------------------4L------|--L-------------------------||
  |--7-----7-----7-----7-------|--7-----7-----7-----5L------|--L-------------------------||
  |--9-----9-----9-----9-------|--9-----9-----9-----6L------|--L-------------------------||
  |----------------------------|--------------------4L------|--L-------------------------||
  |--9--9----------------------|----------------------------|----------------------------||
  |----------------------------|--------------------4L------|--L-------------------------||

           

        
Comments

No comments yet