Gametabs
Home
Tabs
Random

The Tree Song

Average rating: 4.800

5 ratings

Composer:

Tabber:

Style:

Instrument:

Created: January 26, 2011 at 12:00 AM

            Song:  The Tree Song
Anime: ~Kaiba~
Composed  by: Kiyoshi Yoshida
Performed by: Minako Obata
Arranged  by: Pandacoustic


Standard tuning
Capo: VI


  Q=104
   Am		 G		F	      Em

  Q  Q  Q  Q    Q  Q  Q.   E   Q  Q  Q  Q    H
e|-------0-----|--------------|-------------|--------------|
B|-1--3-----1--|-3--1--0------|----0--1--3--|-0----<12>----|
G|-2-----------|-0----------0-|-2-----------|-0----<12>----|
D|-2-----------|-0------------|-3-----------|-0----<12>----|
A|-------------|--------------|-------------|--------------|
E|-------------|--------------|-------------|--------------|
  W             W              W             H      H


  Am		G	      F	             Am

  Q  Q  Q  Q    Q  Q  Q.   E   Q  Q  Q  Q
|-------0-----|--------------|-------------|------|
|-1--3-----1--|-3--1--0------|----1--0-----|------|
|-2-----------|-0----------0-|-2--------0--|-2----|
|-2-----------|-0------------|-3-----------|-2----|
|-------------|--------------|-------------|-0----|
|-------------|--------------|-------------|------|
  W             W              W             W



  Q   Q   Q  Q     Q   Q   Q.   E   Q   Q   Q  Q     W
|---------0------|----------------|----------------|-------------|
|-1---3------1---|-3---1---0------|-----0---1--3---|-0-----------|
|-2--------------|-------0------0-|-2--------------|-0-----------|
|-2-----2--------|---2-----0------|---0---2--------|----3--2--0--|
|---0------------|----------------|----------------|-------------|
|----------------|-3--------------|-1--------------|-0-----------|
  E Q   H      E   E Q   E H        E Q   H      E   Q  Q  Q  Q


  Q   Q   Q  Q     Q   Q   Q.   E   Q    Q  Q  Q     W
|---------0------|----------------|----------------|------|
|-1---3------1---|-3---1---0------|------1--0------|------|
|-2--------------|-------0------0-|-2----------0---|-2----|
|-2-----2--------|---2-----0------|---0------------|-2----|
|---0------------|----------------|----------------|-3----|
|----------------|-3--------------|-1--------------|-5----|
  E Q   H      E   E Q   E H        E H.         E   W

  G		   C 		  F		    E

  Q   Q   Q  Q     Q   Q   H      Q   Q   Q   Q     W
|------------3---|-1---3---0----|-1---0-----------|------|
|-0---1---3------|-1-------0----|-1---0---3---1---|-0----|
|-------0--------|-2-------0----|-----------------|-0----|
|---0------------|-0------------|---3---2---0-----|------|
|----------------|---0-----3----|-----------------|------|
|-3--------------|--------------|-1---------------|-0----|
  E Q   H      E   E Q   E H      E Q   Q   Q   E   W


  G     	 C	      D		    E

  Q   Q  Q  Q    Q  Q  H      Q  Q  Q  Q    H     H       H     H
|-----------3--|-1--3--0----|-2-----2--5--|-4-----1-----|-0----------|
|-0---1--3-----|-1-----0----|-3--3--------|-0-----0-----|-0-----3----|
|-----0--------|-2-----0----|-2-----------|-------------|-------4----|
|---0----------|-0----------|-0-----------|-------------|-------0----|
|-----------2--|-------3----|-------0-----|----2-----3--|----2-------|
|-3------------|------------|-------------|-0-----------|-------0----|
  E E H     Q    H     H      H     H       Q  Q  Q  Q    Q  Q  H


  Q  Q  Q  Q    Q  Q  Q.   E   Q  Q  Q  Q    H
|-------0-----|--------------|-------------|--------------|
|-1--3-----1--|-3--1--0------|----0--1--3--|-0----<12>----|
|-2-----------|-0----------0-|-2-----------|-0----<12>----|
|-2-----------|-0------------|-3-----------|-0----<12>----|
|-0-----------|--------------|-------------|--------------|
|-------------|-3------------|-1-----------|--------------|
  W             W              W             H      H


  Q  Q  Q  Q    Q  Q  Q.   E   Q  Q  Q  Q
|-------0-----|--------------|-------------|------|
|-1--3-----1--|-3--1--0------|----1--0-----|------|
|-2-----------|-0----------0-|-2--------0--|-2----|
|-2-----------|-0------------|-3-----------|-2----|
|-0-----------|--------------|-------------|-0----|
|-------------|-3------------|-1-----------|------|
  W             W              W             W

  Bb	     F		     Gm		 F

  H    H      W              Q  Q  H      Q  Q  H
|-----------|--------------|------------|------------|
|------3----|--------------|-------3----|-1----------|
|-3---------|-2------------|----3-------|----2-------|
|-3---------|-------3------|-5----------|-------3----|
|-1---------|----0---------|-5----------|------------|
|-----------|-1------------|-3----------|-1----------|
  W           Q  Q  H        W            W

  G		     Bb	

  Q  Q  Q  Q    H     H      H     W          H
|-------------|------------|----------------|------|
|-------------|------------|----------------|------|
|-0-----------|-0----------|------10--------|------|
|-------------|-0----------|----------------|------|
|----0--1--3--|------------|-8--------------|------|
|-3-----------|------/6----|----------------|------|
  W             H     H


  Q=92
  Q  Q  Q  Q    Q  Q  Q.   E   Q  Q  Q  Q    H      H
|-------0-----|--------------|-------------|--------------|
|-1--3-----1--|-3--1--0------|----0--1--3--|-0----<12>----|
|-2-----------|-0----------0-|-2-----------|-0----<12>----|
|-2-----------|-0------------|-3-----------|-0----<12>----|
|-0-----------|--------------|-------------|--------------|
|-------------|-3------------|-1-----------|-0------------|
  W             W              W             W


  Q  Q  Q  Q    Q  Q  Q.   E   Q  Q  Q  Q
|-------0-----|--------------|-------------|-------|
|-1--3-----1--|-3--1--0------|----1--0-----|-------|
|-2-----------|-2----------0-|-2--------0--|--2----|
|-2-----------|-0------------|-3-----------|--2----|
|-0-----------|--------------|-3-----------|--3----|
|-------------|-3------------|-1-----------|--5----|
  W             W              W              W


Duration Legend
---------------
W - whole; H - half; Q - quarter; E - 8th;

Tablature Legend
----------------
 /   - slide into
< n >  - natural harmonic
        
Comments

No comments yet