Gametabs
Home
Tabs
Random

NO, Thank You!

Average rating: 2.000

2 ratings

Composer:

Tabber:

Style:

Instrument:

Created: December 04, 2012 at 12:00 AM

            -------------------------------------------------------------------------------
			     NO! Thank You! – K-ON!
-------------------------------------------------------------------------------
Tabbed by: Niall Hamilton
E-mail: [email protected]

Tuning: Standard

(Intro – 0.11)

G|---------------------------------------------------------------------------|
D|---------------------------------------------------------------------------|
A|---------------------------------------------------------------------------|
E|-0-0-0-0-0-0-0-0-(x3)-0-0—8-10--0-0-0-0-0-0-0-0-(x3)-0-0-8-10--------------|

(Verse – 0.22)

G|---------------------------------------------------------------------------|(x4)
D|---------------------------------------------------------------------------|
A|---------------------------------------------12-12---11-12-11-12-11--------|
E|-0-0--0-0----12-12--12-12----10-10--10-10----------------------------------|

(Pre-Chorus – 0.44)

G|---------------------------------------------------------------------------|
D|---------------------------------------------------------------------------|
A|---------------0-0-0-0-(x4)---------------0-0-0-0-(X4)---------------------|
E|-0-0-0-0-(x4)---------------0-0-0-0-(X4)-----------------------------------|

G|---------------------------------------------------------------------------|
D|---------------------------------------------------------------------------|
A|-3-3-3-3-(x2)—2-2-2-2-(x2)--0-0-0-0-2-2-2-2-3-3-3-3--5--5------------------|
E|---------------------------------------------------------------------------|

(Chorus – 1.05)

G|---------------------------------------------------------------------------|
D|---------------------------------------------------------------------------|
A|-3-3-3-3-3-3-3-3-5-5-5-5-5-5-5-5-----------------2-2-2-2-2-2-2-2-----------|
E|---------------------------------3-3-3-3-3-3-3-3---------------------------|

G|---------------------------------------------------------------------------|
D|---------------------------------------------------------------------------|
A|-3-3-3-3-3-3-3-3-5-5-5-5-5-5-5-5-------------------------------------------|
E|---------------------------------0-0-0-0-2-2-2-2-3-3-3-3-7-7-7-7-7-7-7-7---|

G|---------------------------------------------------------------------------|
D|---------------------------------------------------------------------------|
A|---------------------------------------------------------7-7-7-7-5-5-5-5---|
E|-8-8-8-8-8-8-8-8-10-10-10-10-10-10-10-10-7-7-7-7-7-7-7-7-------------------|

G|---------------------------------------------------------------------------|
D|---------------------------------------------------------------------------|
A|---------------------------------------------------------------------------|
E|-5-5-5-5-7-----------------------------------------------------------------|

G|---------------------------------------------------------------------------|
D|---------------------------------------------------------------------------|
A|---------------------------------------------------------------------------|
E|-0-0-0-0-0-0-0-0-(x3)-0-0—8-10---------------------------------------------|


| /  slide up
| \  slide down
| h  hammer-on
| p  pull-off
| ~  vibrato
| +  harmonic
| x  Mute note
===============================================================================

        
Comments

@spottedtalon13 (January 20, 2014 at 2:09 AM)

The Pre-Chorus is wrong, some parts of the verse is incorrect. The chorus is fine.