Gametabs
Home
Tabs
Random

Nascence (Joshua Shade Version)

Average rating: No ratings

Composer:

Tabber:

Style:

Instrument:

Created: July 07, 2016 at 12:00 AM

            Journey - Nascence


e|---------------------|------------|-------------------|-------------|--------------|---------|
B|---------------------|------------|-------------------|-------------|--------------|---------|
G|---------------------|------------|-------------------|-------------|--------------|---------|
D|---------------------|------------|-------------------|-------------|--------------|---------|
A|-0--------0---2------|-3----------|-0--------0---2----|-/-7-\--3/5--|-2--3p2-------|-0-------|
E|------3--------------|------3-----|-----3-------------|-------------|----------3---|---------|


                          x2
e|-----------------|-------------------|----------------------|--------------|----------------------|
B|--1--------------|-0-----------------|--------------------0-|-1------------|--------------------0-|
G|--2------0--2----|-5------0-----0----|-2--------2-----2-----|-0----2--/-4--|-2-----0---2-0-2-2----|
D|--2---2----------|-2---2------/-7----|-2--2--5------5-------|-0--0------5--|-3---3--------------3-|
A|--0--------------|-------------------|-0--------------------|-----------5--|-3--------------------|
E|-----------------|-0---------------7-|----------------------|-3------------|-1---------------1----|



e|-0---------|------------------|----------------|-----------------|-------------3-|-5--------5-^-7-|
B|-1---1---3-|-0--1--0----------|----------0-----|-----------------|-0-------------|-5-5---8--------|
G|-0-------2-|----0-----0--2----|-0--------------|-2-----5-^-2---5-|-5-----0--2----|-5--------------|
D|-2-------3-|----0--0--------0-|------7---------|-2--2--5--(5)--7-|-2--2-----2----|-7---7----------|
A|-3-------0-|------------------|-5--5-----7-----|-0-------------0-|---------------|-0--------------|
E|-----------|----3-------------|-3------------7-|-----------------|-0-----------0-|----------------|


e|-------12---------10-|-8--------------------|-12-----------10----13----|-15-----|------17---------|
B|-------13---------8--|-10--------8--10-/-12-|-12-------13--10-------10-|-15--12-|---13----15--[12]|
G|----12----------0----|-10--10---------------|-12----12-----10----10----|--------|-------------[12]|
D|-------------9-------|-10-------------------|-10--10--------0-[12]-----|-14--12-|-------------[12]|
A|-10-------10---------|-8------8-------------|--------------------------|--------|-12--------------|
E|---------------------|----------------------|--------------------------|--------|-----------------|



e|---8-------|--8----7--|-5---------------3-|-----|
B|-8---------|------10--|-5-----------5-----|-----|
G|-----------|--7----7--|---------4---------|-----|
D|---------7-|(12)---9--|-------------------|-2---|
A|-------8---|-10---10--|-7-----------------|-0---|
E|-----------|----------|-5---0-------------|-----|




*-open harmonic
        
Comments

No comments yet