Gametabs
Home
Tabs
Random

Tomodachi no Kioku ver.b

Average rating: 5.000

3 ratings

Composer:

Tabber:

Style:

Instrument:

Created: November 25, 2014 at 12:00 AM

            Title: Tomodachi no Kioku ver.b
SubTitle: Isshuukan Friends
Artist: Ironé Toda
Tabber: Mitch Jackson
Tempo = 96
T/S = 4/4
                
Tuning = Standard

Left hand fingering is included in GP file as a guide

---------
LEGEND 
---------
h = Hammer-On
L = Hold Previous Note
s = Slide
^ = Upward Arpeggio
<?> = Natural Harmonic
cres = Crescendo (Gradually Play Louder)
decres = Decrescendo (Gradually Play Quieter)
mf = mezzo-forte (Moderately Loud)
mp = mezzo-piano (Moderately Quiet)


  2/4              4/4
  mp                  ^                                                         ^ 
     E  E  E  E       Q.       Q     Q     E       Q     Q     E  E  E  E       Q.       Q     Q     E
E |-----------0----|--2--------2-----0-----2----|--0-----2-----0--------2----|--0--------0----------------|
B |--------3-------|--3-------------------------|--------------------3-------|--2--------------3-----2----|
G |-----2----------|--2-------------------------|-----------------2----------|--2-------------------------|
D |----------------|----------------------------|----------------------------|----------------------------|
A |----------------|----------------------------|----------------------------|----------------------------|
E |----------------|----------------------------|----------------------------|----------------------------|

                                  ^                                                         ^
     E  E  Q.       E  E  E       Q.       Q     Q     E       Q     Q     E  E  E  E       Q.       Q     E  S S E
  |-----------------------0----|--2--------2-----0-----2----|--0-----2-----0--------2----|--0--------0-----5-----------|
  |--L--0--------------3-------|--3-------------------------|--------------------3-------|--2-----------------2s3-2----|
  |--------2--------2----------|--2-------------------------|-----------------2----------|--2--------------------------|
  |----------------------------|----------------------------|----------------------------|-----------------------------|
  |----------------------------|----------------------------|----------------------------|-----------------------------|
  |----------------------------|----------------------------|----------------------------|-----------------------------|

                                                        
     E  E  Q     E  E  E  E       E  E  E  E  E  E  E  E       E  E  E  E  E  E  E  E       E  E  E  E  E  E  E  E
  |--------------0--------0----|--2--------2-----0-----2----|--0-----2-----0--------2----|--0--------0----------------|
  |-----3--3-----------3-------|-----0-----0-----0-----0----|-----0-----0--------3-------|-----------------3-----2----|
  |-----------------2----------|--0-----0-----0-----0-------|--0-----0-----0--2----------|-----2-----2-----2-----2----|
  |--4-------------------------|----------------------------|----------------------------|--4-----4-----4-----4-------|
  |----------------------------|----------------------------|----------------------------|----------------------------|
  |----------------------------|----------------------------|----------------------------|----------------------------|

                                                          
     E  E  E  E  E  E  E  E       E  E  E  E  E  E  E  E       E  E  E  E  E  E  E  E       E  E  E  E  E  E  E  E
  |-----------------------0----|--2--------2-----0-----2----|--0-----2-----0--------2----|--0--------0-----5----------|
  |-----0--------------3-------|-----0-----0-----0-----0----|-----0-----0--------3-------|--------------------3--2----|
  |-----2-----2-----2----------|--0-----0-----0-----0-------|--0-----0-----0--2----------|-----2-----2-----2-----2----|
  |--4-----4-----4-------------|----------------------------|----------------------------|--4-----4-----4-----4-------|
  |----------------------------|----------------------------|----------------------------|----------------------------|
  |----------------------------|----------------------------|----------------------------|----------------------------|

     cres                      mf                               
     E  E  E  E  E  E  E  E       E  E  E  E  E  E  E  E       E  E  E  E  E  E  E  E       E  E  E  E  E  E  E  E   
  |-----------------0--2--3----|--5--------------0-----0----|--------5--0-----2----------|--2--------0-----5----------|
  |-----------2--3-------------|-----0--2-----------2-------|--2--3--------------2-------|--------3-----------2-------|
  |-----2----------------------|--------2-----------4-------|--------2-----------2-------|--------2-----------4-------|
  |--4-----4-------------------|-----0-----0-----2-----2----|-----4-----4-----2-----2----|-----0-----0-----2-----2----|
  |----------------------------|--------------0-------------|--2-----------0-------------|--------------0-------------|
  |----------------------------|--3-------------------------|----------------------------|--3-------------------------|

                                                          
     E  E  E  E  E  E  E  E       E  E  E  E  E  E  E  E       E  E  E  E  E  E  E  E       E  E  E  E  E  E  E  E    
  |--0-------------------------|-----------------0-----0----|--------5--0-----2----------|--2--------0-----5----------|
  |--------3--3--------2-------|-----0--2-----------2-------|--2--3--------------2-------|--------3-----------2-------|
  |--------2-----------2-------|--2-----2-----------4-------|--------2-----------2-------|--------2-----------4-------|
  |-----4-----4-----2-----2----|-----0-----0-----2-----2----|-----4-----4-----2-----2----|-----0-----0-----2-----2----|
  |--2-----------0-------------|--------------0-------------|--2-----------0-------------|--------------0-------------|
  |----------------------------|--3-------------------------|----------------------------|--3-------------------------|

     ^                            ^                                                           
     E  E  E  E  E  E  E  E       H           Q     Q          E  E  E  E  E  E  E  E       E  E  E  E  E  E  E  E
  |--0--------------0--2--5----|--0-----------------0-------|--2-----------------0-------|--2-------------------------|
  |--2--------2--3-------------|--0-----------3-------------|--------------0-------------|--------0-----3-----2-------|
  |--4-----4-------------------|--4-------------------------|--------0--2-----2--0-------|--------0--2-----2--0-------|
  |--4--4----------------------|--4-------------------------|-----0-----------------0----|-----0-----------------0----|
  |--2-------------------------|--2-------------------------|----------------------------|----------------------------|
  |----------------------------|----------------------------|--3-------------------------|--3-------------------------|

             
     E  E  E  E  E  E  E  E       E  E  E  E  E  E  E  E       E  E  E  E  E  E  E  E       E  E  E  E  E  E  E  E 
  |----------------------------|--------------------0-------|--2-----------------0-------|--2-----------------0-------|
  |-----------2--3--2----------|-----------2--3--2----------|--------------0-------------|--------0-----3-------------|
  |--2-----4-----------4-------|--2-----4-----------4-------|--------0--2-----2--0-------|--------0--2-----2--0-------|
  |-----4-----------------4----|-----4-----------------4----|-----0-----------------0----|-----0-----------------0----|
  |--2-------------------------|--2-------------------------|----------------------------|----------------------------|
  |----------------------------|----------------------------|--3-------------------------|--3-------------------------|

                                                          
     E  E  E  E  E  E  E  E       E  E  E  E  E  E  E  E       E  E  E  E  E  E  E  E       E  E  E  E  E  E  E  E 
  |----------------------------|--------------------0-------|--2--------2--------0-------|--2-------------------------|
  |--2--------2--3--2----------|--------2-----3-------------|--------------0-------------|--------0-----3-----2-------|
  |--------4-----------4-------|--4--------4-----------2----|--------0--2-----2--0-------|--------0-------------------|
  |-----4-----------------4----|-----4-----------2----------|-----0-----------------0----|-----0-----0-----2-----2----|
  |--2-------------------------|--2-----------0-------------|----------------------------|--------------0-------------|
  |----------------------------|----------------------------|--3-------------------------|--3-------------------------|

                                                          
     E  E  E  E  E  E  E  E       E  E  E  E  E  E  E  E       E  E  E  E  E  E  E  E       E  E  E  E  E  E  E  E 
  |--------------------5-------|--------------------2-------|--2--------2-----0-----2----|-----------------------2----|
  |-----------2--5--2-----3----|-----------2--3-------------|--------------0-------------|--3-----0-----2-----3-------|
  |--2-----4-------------------|--------4--------------4----|--------0--2-----2--0-------|-----------------2----------|
  |-----4----------------------|-----4-----------2----------|-----0-----------------0----|-----0-----0-----2----------|
  |--2-------------------------|--2-----------0-------------|----------------------------|--------------0-------------|
  |----------------------------|----------------------------|--3-------------------------|--3-------------------------|

                                              ^               decres                    mp ^        
     E  E  E  E  E  E  E  E       E  E  E  E  E.  E.  E       E  E  E  E  E  E  E  E       Q     Q     Q     E  E
  |--0--------------5----------|---------------------------|--2--------------------3----|--2-----7s----10----9--5----|
  |-----------2--3-----3--2----|--------3--3--2------------|--------------0--2--3-------|--0-------------------------|
  |--------4-------------------|--2-----------2---4---2----|--------0--2----------------|----------------------------|
  |-----4----------------------|-----4-----4--2------------|-----0----------------------|--0-------------------------|
  |--2-------------------------|--2-----------0------------|----------------------------|----------------------------|
  |----------------------------|---------------------------|--3-------------------------|--3-------------------------|
                                                                                         
                                                           3/4 ^                      ^
     E  E  E  E  Q     E  E       E  E  E  E  Q     E  E       Q     Q     Q          E  E  Q     Q   
  |--------2-----0-----5-------|--------------0-----2-------|--0-----2-----0-------|--2-----0-----2-------|
  |-----------2-----------3----|--2-----3-------------------|--0-------------------|--2h-3----------------|
  |----------------------------|--------4--------------4----|--0-------------------|--2-------------------|
  |--------4-------------------|-----4-----4----------------|--0-------------------|--4-------------------|
  |-----4----------------------|--2-------------------------|----------------------|--4-------------------|
  |--2-------------------------|----------------------------|--3-------------------|--2-------------------|

                           ^                  4/4 ^
     S S E  E  Q.          H.                     H           H                H           H
  |--2h3----------------|--2-------------------|--5-----------6-------------|--10---------<12>-----------|
  |------------3--------|--0-------------------|--3-------------------------|----------------------------|
  |---------0-----------|--0-------------------|--3-------------------------|----------------------------|
  |------4--------------|--2-------------------|----------------------------|----------------------------|
  |---------------------|--0-------------------|--0-------------------------|----------------------------|
  |--0------------------|----------------------|----------------------------|----------------------------|

     ^                                                         ^
     E  E  E  E  E  E  Q          E  E  E  E  Q     Q          W                            W
  |--2-----------------0-------|--5-----------5-----2-------|--7-------------------------|--L-------------------------||
  |--------------3-------------|-----3--------5-------------|----------------------------|----------------------------||
  |--0-----0-------------------|--------0-----------0-------|--0-------------------------|--L-------------------------||
  |--0--0-----0-----0----------|-----------0----------------|--0-------------------------|--L-------------------------||
  |----------------------------|----------------------------|----------------------------|----------------------------||
  |--3-------------------------|----------------------------|--3-------------------------|--L-------------------------||


Note Durations:
---------------
W = Whole Note / Semibreve - 4 Beats
H.= Dotted Half Note - 3 Beats (Minim + Crotchet)
H = Half Note / Minim - 2 Beats
Q.= Dotted Quarter Note - 1 & 1/2 Beats (Crotchet + Quaver)
Q = Quarter Note / Crotchet - 1 Beat
E.= Dotted Eighth Note - 3/4 (Quaver + Semiquaver)
E = Eighth Note / Quaver - 1/2 Beat
S = Sixteenth Note / Semiquaver - 1/4 Beat


        
Comments

No comments yet