Gametabs
Home
Tabs
Random

Level 2

Average rating: No ratings

Composer:

Tabber:

Style:

Instrument:

Created: February 19, 2013 at 12:00 AM

            Level Two
IronSword: Wizards and Warriors 2                  
Composed by David Wise
Tabbed by scowl
Oct 29, 2012



     E  E  E  S S S S E  E  E     E  E  E  S S S S E  E  E   
E||----------------------------|----------------------------|
B||----------------------------|----------------------------|
G||----------------------------|----------------------------|
D||----------------------------|----------------------------|
A||----------------------------|----------------------------|
E||--0--0--0--0-0---0-0--0--0--|--0--0--0--0-0---0-0--0--0--|


  E  E  E  S S S S E  E  E     E  E  E  S S S S E  E  E   
--0--L--L--L-2-L-L-L--L--L--|--3--L--L----5-L-L-L--L-----|
----------------------------|--0--L--L----2-L-L-L--L-----|
--0--L--L--L-2-L-L-L--L--L--|----------------------------|
----------------------------|----------------------------|
----------------------------|----------------------------|
--0--0--0--0-0---0-0--0--0--|--0--0--0--0-0---0-0--0--0--|


  E  E  E  S S S S E  E  E     E  E  E  S S S S E  E  E   
--0--L--L----2-L-L-L--L-----|--3--L--L----5-L-L-L--L-----|
----------------------------|--0--L--L----2-L-L-L--L-----|
--0--L--L----2-L-L-L--L-----|----------------------------|
----------------------------|----------------------------|
----------------------------|----------------------------|
--0--0--0--0-0---0-0--0--0--|--0--0--0--0-0---0-0--0--0--|


  E  E  E  S S S S E  E  E     E  E  E  S S S S E  E  E   
--0--L--L----2-L-L-L--L-----|--3--L--L----5-L-L-L--L-----|
----------------------------|--0--L--L----2-L-L-L--L-----|
--0--L--L----2-L-L-L--L-----|----------------------------|
----------------------------|----------------------------|
----------------------------|----------------------------|
--0--0--0--0-0---0-0--0--0--|--0--0--0--0-0---0-0--0--0--|


  S S S S S S S S S S S S S S S S    E  E  E  S S S S E  E  E   
--7-5-3-5-L-3-2-L-L-3-2-0-2-0-----|----------------------------|
------0-2-L-0-------0---------3-0-|----------------------------|
--------------2-L-L---2-0-2-0-----|----------------------------|
------------------------------4-0-|----------------------------|
----------------------------------|----------------------------|
----------------------------------|--0--0--0--0-0---0-0--0--0--|



  E  E  E  S S S S S S S S S S    E  E  E  S S S S S S S S S S  
--0--L--3--L-2-L-3-2-0-2-0-----|--0--L--3--L-5-L-0-2-3-------0-|
--------0--L---------------3-0-|--------0--L-2-L---------1-3---|
--0--L-------2-L---------------|--0--L-------------------------|
-------------------------------|-------------------------------|  X3
-------------------------------|-------------------------------|
--0--0--0--0-0---0-0---0-L-0-L-|--0--0--0--0-0---0-0---0-L-0-L-| 



  E  E  E  S S S S S S S S S S    E  E  E  S S S S S S S S S S                 
--5-----3----0-----------0-----|--3-----2----0-------0-2-0-----|
--2-----0--------2---3-----2-3-|--0--------------2-3-------3-0-|
-------------0-----------------|--------2----0-----------------|
-------------------------------|-------------------------------| X4
--0--0--0--0-0-L-0-0-L-0-L-0-L-|--0--0--0--0-0-L-0-0-L-0-L-0-L-|
-------------------------------|-------------------------------|



Duration Legend
---------------
W - whole
H - half
Q - quarter
E - 8th
S - 16th
T - 32nd
X - 64th
. - note dotted
|-n-|  - n-tuplets
        
Comments

@karathrow (February 19, 2013 at 7:22 AM)

I like the part where the bassline changes.


@RobinLi (February 19, 2013 at 1:48 PM)

I've never played a bass guitar but this must be how it feels haha