Gametabs
Home
Tabs
Random

Kikyou's Theme (DiegoFloresCastro Version)

Average rating: 5.000

3 ratings

Composer:

Tabber:

Style:

Instrument:

Created: August 11, 2016 at 12:00 AM

            				Kikyou's Theme
				  ~Inuyasha~

Music by Kaoru Wada
Arranged and Performed by Diego Flores Castro
Tabbed by Coolbreeze
Tempo = 108


     Q     Q    Q    Q       Q    Q    Q    Q       Q    Q    Q    Q     
E||--7--------------------|----------------------|----------------------|
B||-------10---------7----|--0-------------------|-----------------0----|
G||-------------9---------|-------2--------------|----------------------|
D||-----------------------|------------2----4----|-------2----4---------|
A||-----------------------|----------------------|--2-------------------|
E||-----------------------|----------------------|----------------------|


                                           ^                 
  H        H           W                   W                 
--------------------|-------------------|--7----------------|
--------------------|-------------------|--7----------------|
--2-----------------|-------------------|--8----------------|
-----------2--------|--4----------------|--9----------------|
--------------------|-------------------|-------------------|
--------------------|-------------------|--7----------------|


  ^                                          ^                    
  Q    Q    Q    Q       W                   Q    Q    Q    Q     
------------7---------|-------------------|--2----0---------0----|
----------------------|--7----------------|-------0----0---------|
--9-------------------|--9----------------|----------------------|
-------9---------9----|-------------------|-------4---------0----|
--7-------------------|-------------------|--5-------------------|
----------------------|-------------------|----------------------|


                      ^                                       
  W                   Q    Q    H           W                 
--2----------------|------------7--------|-------------------|
--3----------------|---------------------|--7----------------|
--2----------------|--9------------------|--9----------------|
-------------------|-------9-------------|-------------------|
-------------------|--7------------------|-------------------|
-------------------|---------------------|-------------------|


  ^                               ^                                   
  Q    Q    Q    Q       H        Q    E  E     Q    Q     Q    Q     
--2----0---------0----|--2-------------------|------------10---------|
-------0----0---------|--3--------5----7--8--|--8--------------------|
----------------------|--2-------------------|-----------------------|
-------4---------0----|-----------0----------|-----------------------|
--5-------------------|----------------------|-------7---------------|
----------------------|----------------------|--5---------------5----|


  ^                                                                
  W                   Q    Q    Q    Q       Q    Q    Q    E  E   
--5----------------|--5--------------3----|------------0----2--3--|
--5----------------|----------------------|--3--------------------|
--5----------------|------------0---------|-----------------------|
-------------------|-------0--------------|-------0---------------|
-------------------|--2-------------------|--2--------------------|
-------------------|----------------------|-----------------------|


  Q    Q    Q    Q       W                   Q    Q    Q    E   E   
--3-------------------|--7----------------|-------5---------3p--2--|
-----------------1----|-------------------|------------------------|
------------2---------|-------------------|------------------------|
-------2--------------|-------------------|------------4-----------|
--0-------------------|-------------------|--2---------------------|
----------------------|-------------------|------------------------|


  ^                    ^                                           
  H        H           Q    Q    Q    Q       H          H         
--2-----------------|------------7---------|----------------------|
--3--------3--------|----------------------|--7--------<>7--------|
--4-----------------|--9-------------------|--9-------------------|
--4-----------------|-------9---------9----|----------------------|
--2-----------------|--7-------------------|----------------------|
--------------------|----------------------|----------------------|


  ^                                             ^                    
  Q    Q    Q    Q       Q    Q    Q    Q       Q    Q    Q    Q     
--2----0---------0----|--2-------------------|------------7---------|
-------0----0---------|--3-------------------|----------------------|
----------------------|--2---------2---------|--9-------------------|
-------4---------0----|-------0---------0----|-------9---------9----|
--5-------------------|----------------------|--7-------------------|
----------------------|----------------------|----------------------|


                         ^                      ^        ^           
  H          H           Q    Q    Q    Q       H        Q    E  E   
----------------------|--2----0---------0----|--2-------------------|
--7-------------------|-------0----0---------|--3--------5----7--8--|
--7-------------------|----------------------|--2-------------------|
----------------------|-------4---------0----|-----------0----------|
-----------<>7--------|--5-------------------|----------------------|
----------------------|----------------------|----------------------|


                          ^                                           
  Q    Q     Q    Q       Q    Q    Q    Q       Q    Q    Q    Q     
------------10---------|--5-------------------|--5--------------3----|
--8--------------------|--5----5--------------|--0-------------------|
-----------------------|--5---------5---------|------------0---------|
-----------------------|-----------------7----|-------0--------------|
-------7---------------|--7-------------------|--2-------------------|
--5---------------5----|----------------------|----------------------|


  Q    Q    Q    E  E     Q    Q    Q    Q       Q    Q    Q    Q     
-----------------------|----------------------|--7-------------------|
--3---------5----7--8--|--8-------------------|-------5--------------|
--0--------------------|-----------------5----|------------5---------|
-------0---------------|------------7---------|-----------------7----|
-----------------------|-------7--------------|----------------------|
-----------------------|--5-------------------|----------------------|


                           ^                     ^                    
  Q    Q    Q    E   E     H        Q    Q       Q    Q    Q    Q     
-------5---------3p--2--|--2------------------|----------------------|
------------------------|--3--------3---------|-----------------7----|
------------------------|--4------------------|--9---------9---------|
------------4-----------|--4------------------|-------9--------------|
--2---------------------|--2-------------0----|--7-------------------|
------------------------|---------------------|----------------------|


                       ^                                        
  W                    Q    Q    Q    Q       W                 
--7----------------|-----------------------|-------------------|
-------------------|-----------------------|--7----------------|
-------------------|---7---------7----9----|-------------------|
-------------------|--------7--------------|-------------------|
-------------------|-----------------------|-------------------|
-------------------|--10-------------------|-------------------|


                                              ^                       
  Q    Q    Q    Q       W                    Q     Q     Q     Q     
----------------------|--7----------------|--10----------------12----|
-----------------7----|-------------------|--------------------------|
------------9---------|-------------------|--------------------------|
-------9--------------|-------------------|--------------12----------|
--7-------------------|-------------------|--------12----------------|
----------------------|-------------------|--10----------------------|


                                                 ^                  
   H         H            W                      W                  
--14--------10--------|---L----------------|--<>12----------------||
----------------------|--------------------|--<>12----------------||
----------------------|--------------------|--<>12----------------||
----------------------|--------------------|----------------------||
----------------------|--------------------|----------------------||
----------------------|--------------------|--<>12----------------||
        
Comments

@BigHeadClan (August 12, 2016 at 8:11 AM)

Not one but 3 of my fav animes get tabs, god I love you Coolbreeze.