Gametabs
Home
Tabs
Random

Town Theme

Average rating: No ratings

Composer:

Tabber:

Style:

Instrument:

Created: September 05, 2009 at 12:00 AM

            Town Theme
Illusion of Gaia
Composed by Yasuhiro Kawasaki
Tabbed by hslesperance
9/5/09

Standard Tuning


Guitar 1

e---14----------14--15------------------14------------17---------
B-----------17----------17------15--17------15--------------14---
G----------------------------------------------------------------
D----------------------------------------------------------------
A----------------------------------------------------------------
E----------------------------------------------------------------

e----------------------------------------------------------------
B-------14--15----------14--15----------17--15--14--15-----------
G---16--------------16----------14----------------------------16-
D----------------------------------------------------------------
A----------------------------------------------------------------
E----------------------------------------------------------------

e-------15--17--14------14----------14--15------------------14---
B---15--------------17----------17----------17------15--17-------
G----------------------------------------------------------------
D----------------------------------------------------------------
A----------------------------------------------------------------
E----------------------------------------------------------------

e-----------17---------------------------------------------------
B---15------------14------------14--15----------14--15-----------
G---------------------------16--------------16----------14-------
D----------------------------------------------------------------
A----------------------------------------------------------------
E----------------------------------------------------------------

e---------------------------------15--14-------------------------
B---17--15--14--15------------15----------15------17------14-15--
G-------------------------16------------------16-----------------
D----------------------------------------------------------------
A----------------------------------------------------------------
E----------------------------------------------------------------

e------------------------------------------14------15--14--------
B---17-15----------15--15--15------14--15------------------17--15
G------------------------------16--------------------------------
D----------------------------------------------------------------
A----------------------------------------------------------------
E----------------------------------------------------------------

e----------------------------------------------------------------
B---17------14-15-17-15----------------------15----14----15------
G--------------------------------------16------------------------
D----------------------------------------------------------------
A----------------------------------------------------------------
E----------------------------------------------------------------

e---14----------14--15------------------14------------17---------
B-----------17----------17------15--17------15--------------14---
G----------------------------------------------------------------
D----------------------------------------------------------------
A----------------------------------------------------------------
E----------------------------------------------------------------

e----------------------------------------------------------------
B-------14--15----------14--15----------17--15--14--15-----------
G---16--------------16----------14----------------------------16-
D----------------------------------------------------------------
A----------------------------------------------------------------
E----------------------------------------------------------------

e-------15--17--14------14----------14--15------------------14---
B---15--------------17----------17----------17------15--17-------
G----------------------------------------------------------------
D----------------------------------------------------------------
A----------------------------------------------------------------
E----------------------------------------------------------------

e-----------17---------------------------------------------------
B---15------------14------------14--15----------14--15-----------
G---------------------------16--------------16----------14-------
D----------------------------------------------------------------
A----------------------------------------------------------------
E----------------------------------------------------------------

e---------------------------------15--14--15--17--14-------------
B---17--15--14--15------------15----------------------17--15--14-
G-------------------------16-------------------------------------
D----------------------------------------------------------------
A----------------------------------------------------------------
E----------------------------------------------------------------

e-------------------15--14--15--17--14----------------------14---
B-------14------15----------------------17--15--14------14-------
G---16------16--------------------------------------16-----------
D----------------------------------------------------------------
A----------------------------------------------------------------
E----------------------------------------------------------------

e---15h17------------15------------14----------------------------
B------------------------------------------------15--------------
G----------------------------------------------------------------
D----------------------------------------------------------------
A----------------------------------------------------------------
E----------------------------------------------------------------

e---15h17------------15------------14----------------------------
B------------------------------------------------15--------------
G----------------------------------------------------------------
D----------------------------------------------------------------
A----------------------------------------------------------------
E----------------------------------------------------------------

e------14-15-17------------15------------14----------------------
B---17-------------------------------------------------15--------
G----------------------------------------------------------------
D----------------------------------------------------------------
A----------------------------------------------------------------
E----------------------------------------------------------------

e------14-15-17------------15------------------------------------
B---17-----------------------------------------------------------
G----------------------------------------------------------------
D----------------------------------------------------------------
A----------------------------------------------------------------
E----------------------------------------------------------------


Guitar 2

e---14----14--------12--12--12--------14----14--------12--12--12-
B---15----15--------14--14--14--------15----15--------14--14--12-
G----------------------------------------------------------------
D----------------------------------------------------------------
A----------------------------------------------------------------
E----------------------------------------------------------------

e---14----14--------14----14--------15----15----15---------------
B---15----15--------15----15--------15----15----15---------------
G----------------------------------------------------------------
D----------------------------------------------------------------
A----------------------------------------------------------------
E----------------------------------------------------------------

e---14----14--------12--12--12--------14----14--------12--12--12-
B---15----15--------14--14--14--------15----15--------14--14--12-
G----------------------------------------------------------------
D----------------------------------------------------------------
A----------------------------------------------------------------
E----------------------------------------------------------------

e---14----14--------14----14--------15----15----15---------------
B---15----15--------15----15--------15----15----15---------------
G----------------------------------------------------------------
D----------------------------------------------------------------
A----------------------------------------------------------------
E----------------------------------------------------------------

e---12----12--------14------------15----15--------12--12--12-----
B---14----14--------15------------15----15--------14--14--14-----
G----------------------------------------------------------------
D----------------------------------------------------------------
A----------------------------------------------------------------
E----------------------------------------------------------------

e---12----12--------14------------15----12--------15--15--15-----
B---14----14--------15------------15----14--------15--15--15-----
G----------------------------------------------------------------
D----------------------------------------------------------------
A----------------------------------------------------------------
E----------------------------------------------------------------

e---15---15-15------------17------17--22----------17------21-----
B---15---15-15--------19------19--------------17------17---------
G-----------------19----------------------18---------------------
D-------------------------------------------------------------21-
A----------------------------------------------------------------
E----------------------------------------------------------------

e-------------------22--21--17--17----------------------19-------
B-------19------19------------------17--17----------19------19---
G---19------19------------------------------18--19---------------
D----------------------------------------------------------------
A----------------------------------------------------------------
E----------------------------------------------------------------

e---19--22----------17------17--22----------19------19--22-------
B---------------19------19--------------20------20----------20---
G-----------19----------------------19---------------------------
D----------------------------------------------------------------
A----------------------------------------------------------------
E----------------------------------------------------------------

e---14----14--------12--12--12--------14----14--------12--12--12-
B---15----15--------14--14--14--------15----15--------14--14--14-
G----------------------------------------------------------------
D----------------------------------------------------------------
A----------------------------------------------------------------
E----------------------------------------------------------------

e---14----14--------14----14--------15----15--------15-----------
B---15----15--------15----15--------15----15---------------------
G----------------------------------------------------------------
D----------------------------------------------------------------
A----------------------------------------------------------------
E----------------------------------------------------------------

e---17--15--14--------------14------------17----------------15---
B---------------17--15--14--15------------15----------------15---
G----------------------------------------------------------------
D----------------------------------------------------------------
A----------------------------------------------------------------
E----------------------------------------------------------------

e---14----------------14------------17----------------15---------
B---15----------------15------------15----------------15---------
G----------------------------------------------------------------
D----------------------------------------------------------------
A----------------------------------------------------------------
E----------------------------------------------------------------

e---14----------------14----14------17--17---17--17------15----15
B---15----------------15----15------15--15---15--15------15----15
G----------------------------------------------------------------
D----------------------------------------------------------------
A----------------------------------------------------------------
E----------------------------------------------------------------

e---14----------------14----14------17--17---17--17------15----15
B---15----------------15----15------15--15---15--15------15----15
G----------------------------------------------------------------
D----------------------------------------------------------------
A----------------------------------------------------------------
E----------------------------------------------------------------

e---15----15----15-----------------------------------------------
B---15----15----15-----------------------------------------------
G----------------------------------------------------------------
D----------------------------------------------------------------
A----------------------------------------------------------------
E----------------------------------------------------------------


Bass

G----------------------------------------------------------------
D---0----0----0--------------------------------------------------
A------------------4----4----4----2----2----2----0----0----0-----
E----------------------------------------------------------------

G---0----0----0--------------------------------------------------
D------------------4----4----4----2----2----2--------------------
A------------------------------------------------0----0----0-----
E----------------------------------------------------------------

G----------------------------------------------------------------
D---0----0----0--------------------------------------------------
A------------------4----4----4----2----2----2----0----0----0-----
E----------------------------------------------------------------

G---0----0----0--------------------------------------------------
D------------------4----4----4----2----2----2--------------------
A------------------------------------------------0----0----0-----
E----------------------------------------------------------------

G----------------------------------------------------------------
D---2----2----2-------------------2----2----2--------------------
A------------------2----2----2-------------------0----0----0-----
E----------------------------------------------------------------

G-------------------------------------------2----0----0----0-----
D---4----4----4-------------------2----2-------------------------
A------------------2----2----2-----------------------------------
E----------------------------------------------------------------

G---0----0----0--------------------------------------------------
D------------------0---------------------------------------------
A-------------------------------4------------2------------0------
E----------------------------------------------------------------
                                             TP
G---0------------------------------------------------------------
D----------------4------------2----2----2-------------2----------
A--------------------------------------------0-------------------
E----------------------------------------------------------------

G----------------------------------------------------------------
D---0----0----0--------------------------------------------------
A------------------4----4----4----2----2----2----0----0----0-----
E----------------------------------------------------------------

G---0----0----0--------------------------------------------------
D------------------4----4----4----2----2----2--------------------
A------------------------------------------------0----0----0-----
E----------------------------------------------------------------

G-------------------------------------------------------------2--
D------------------------------------------------0---------------
A---0----0----0----0----0----0----0----0----0--------------------
E----------------------------------------------------------------

G------------------------------------------2---------------------
D---2------------0------------0---------------------------2------
A----------------------------------------------------------------
E----------------------------------------------------------------

G-------------------------------0----0----0----------------------
D---0------------0----0----0-------------------2----2----2-------
A----------------------------------------------------------------
E----------------------------------------------------------------

G---------------------------------0----0----0--------------------
D---0----0----0----0----0----0-------------------2----2----2-----
A----------------------------------------------------------------
E----------------------------------------------------------------

G----------------------------------------------------------------
D----------------------------------------------------------------
A---0----0----0--------------------------------------------------
E----------------------------------------------------------------

h  - hammer on
TP - tremolo picking

        
Comments

@Kain (September 05, 2009 at 5:39 PM)

Holy... thanks, man. I thought about trying to tab this but stopped because I realized I had no idea where to start. This owns.