Gametabs
Home
Tabs
Random

Lola's Melody

Average rating: No ratings

Composer:

Tabber:

Style:

Instrument:

Created: June 13, 2011 at 12:00 AM

            Lola's Melody - Illusion of Gaia
Yasuhiro Kawasaki
Tabbed by Matt Deakins (Kain)
6/12/2011

E-5--3--5-------3--5--3-----------------------
B--------------------------5--1--3--5--1------
G-----------------------------------------2---
D-3-------------2-------------0-----------2---
A---------------------------------------------
E---------------------------------------------

E-5--3--5-------3--5--3----------------3--5---
B--------------------------5--1--3--5-----2---
G-----------------------------------------2---
D-----------------------------------------2---
A-3-------------2-------------0-----------L---
E---------------------------------------------
        
Comments

No comments yet