Gametabs
Home
Tabs
Random

Seven Four

Average rating: No ratings

Composer:

Tabber:

Style:

Instrument:

Created: January 13, 2017 at 12:00 AM

            This song really stood out when I first played through Iji years ago, so I decided to tab it out! The solos aren't currently done, but will be coming more than likely in a separate tab soon. Hope you enjoy!

Title  : Seven Four
Game   : Iji
Artist : Chris Geehan & Dan Byrne-McCullough
Author : Ryan B
Date   : 1/11/2017


Intro:

D|-5---2---4-------------------5---|-----2---4---------------5---2---|-4-------------------5----2---|
A|-------------5---7---3-----------|-------------5---7---3-----------|-----5---7---3----------------|
F|---------------------------------|---------------------------------|------------------------------|
C|---------------------------------|---------------------------------|------------------------------|
G|---------------------------------|---------------------------------|------------------------------|
C|---------------------------------|---------------------------------|------------------------------|


D|-4---------------5---------------|-------------5----------------|---------5-----------------------|
A|-----5---7---3-------6---8---5---|-6---3------------6---8---5---|-6---3-------6---8---5---6---3---|
F|---------------------------------|------------------------------|---------------------------------|
C|---------------------------------|------------------------------|---------------------------------|
G|---------------------------------|------------------------------|---------------------------------|
C|---------------------------------|------------------------------|---------------------------------|


D|-----5------------------------|-9---6---8---4---6---2-------9---|-----6---8---4---6---2---9---6---|
A|----------6---8---5---6---3---|---------------------------------|---------------------------------|
F|------------------------------|---------------------------------|---------------------------------|
C|------------------------------|---------------------------------|---------------------------------|
G|------------------------------|---------------------------------|---------------------------------|
C|------------------------------|---------------------------------|---------------------------------|
				 

D|-8---4---6---2-------9-------6---|-8---4---6---2---9---5---7---4---|-5---2-------9-------5---7---4---|
A|---------------------------------|---------------------------------|---------------------------------|
F|---------------------------------|---------------------------------|---------------------------------|
C|---------------------------------|---------------------------------|---------------------------------|
G|---------------------------------|---------------------------------|---------------------------------|
C|---------------------------------|---------------------------------|---------------------------------|

									
D|-5---2---9---5---7---4---5---2---|-----9-------5---7---4---5---2---|-------------|
A|---------------------------------|---------------------------------|-------------|
F|---------------------------------|---------------------------------|-7-----4-----|
C|---------------------------------|---------------------------------|-7-----4-----|
G|---------------------------------|---------------------------------|-9-----2-----|
C|---------------------------------|---------------------------------|-------------|
								      
Bridge:

D|-------------|-----------------|
A|-------------|-----------------|
F|-7-----4-----|-6-----6---------|
C|-7-----4-----|-6-----6----4----|
G|-9-----2-----|-8-----8----4----|
C|-------------|------------4----| Let last chord ring out until next part

D|--------------------|--------------------|--------------------|
A|--------------------|--------------------|--------------------|
F|--------------------|--------------------|--------------------|
C|-4-----4-----7-----7|-4-----4-----7-----7|-4-----4-----7-----7|
G|-4-----4-----7-----7|-4-----4-----7-----7|-4-----4-----7-----7|
C|-4-----4-----7-----7|-4-----4-----7-----7|-4-----4-----7-----7|

D|-----------------------------|
A|-----------------------------|
F|-----------------------------|
C|-4-----4-----7-----7-----7--6|
G|-4-----4-----7-----7-----7--6|
C|-4-----4-----7-----7-----7--6|

D|-----|-----|-----|-----|
A|-----|-----|-----|-----|
F|-----|-----|-----|-----|
C|-5---|-9---|-5---|-9---|
G|-5---|-9---|-5---|-9---|
C|-5---|-9---|-5---|-9---| 

D|-----|-----|--------|
A|-----|-----|--------|
F|-----|-----|--------|
C|-5---|-7---|-4-----9|
G|-5---|-7---|-4-----9|
C|-5---|-7---|-4-----9|

Chorus: Palm mute first two chords of each measure

D|---------------------|---------------------|---------------------|---------------------|
A|---------------------|---------------------|---------------------|---------------------|
F|---------------------|---------------------|---------------------|---------------------|
C|-0----0----0---------|-0----0----0---------|-0----0----0---------|-0----0----0---------|
G|-0----0----0---------|-0----0----0---------|-0----0----0---------|-0----0----0---------|
C|-0----0----0---------|-0----0----0---------|-0----0----0---------|-0----0----0---------|

D|---------------------|---------------------|---------------------|---------------------|
A|---------------------|---------------------|---------------------|---------------------|
F|---------------------|---------------------|---------------------|---------------------|
C|-3----3----3---------|-3----3----3---------|-3----3----3---------|-3----3----3---------|
G|-3----3----3---------|-3----3----3---------|-3----3----3---------|-3----3----3---------|
C|-3----3----3---------|-3----3----3---------|-3----3----3---------|-3----3----3---------|

D|---------------------|---------------------|---------------------|---------------------|
A|---------------------|---------------------|---------------------|---------------------|
F|---------------------|---------------------|---------------------|---------------------|
C|-0----0----0---------|-0----0----0---------|-0----0----0---------|-0----0----0---------|
G|-0----0----0---------|-0----0----0---------|-0----0----0---------|-0----0----0---------|
C|-0----0----0---------|-0----0----0---------|-0----0----0---------|-0----0----0---------|

D|---------------------|---------------------|---------------------|---------------------|
A|---------------------|---------------------|---------------------|---------------------|
F|---------------------|---------------------|---------------------|---------------------|
C|-3----3----3---------|-3----3----3---------|-3----3----3---------|-3----3----3---------|
G|-3----3----3---------|-3----3----3---------|-3----3----3---------|-3----3----3---------|
C|-3----3----3---------|-3----3----3---------|-3----3----3---------|-3----3----3---------|

Outro: First part of outro alternates these two chords, listen to the song to find the
       pattern.

D|----------|
A|----------|
F|----------|
C|-4-----7--|
G|-4-----7--|
C|-4-----7--|

D|-------------------------------------------|
A|-------------------------------------------|
F|-------------------------------------------|
C|-4--4--4----4--4--4----4--4--4----4--4--4--|
G|-4--4--4----4--4--4----4--4--4----4--4--4--|
C|-4--4--4----4--4--4----4--4--4----4--4--4--|
        
Comments

No comments yet