Gametabs
Home
Tabs
Random

You Were There

Average rating: 4.839

31 ratings

Composer:

Tabber:

Style:

Instrument:

Created: December 16, 2007 at 12:00 AM

            You Were There (Abridged Version)                         
~Ico~
Composed by: Oshima Michiru
Arranged by: Justin Lincoln

Drop D Tuning


     E  E  E  E  E  E     E  E  E  E  E  E     E  E  E  E  E  E   
E||--------------------|--------------------|--------------------|
B||-----------------0--|--0--------------0--|--------------------|
G||--------------0-----|--------------0-----|--2--------------2--|
D||--------2--4--------|--------2--4--------|-----------2--4-----|
A||-----2--------------|-----3--------------|--------0-----------|
D||--2-----------------|--------------------|-----0--------------|


  E  E  E  E  E  E     E  E  E  E  E  E     E  E  E  E  E  E   
--------------------|--------------------|--------------------|
--------------------|--------0-----------|--------------------|
--2-----------------|-----------------0--|--------------------|
--------0--2--4--0--|--2-----------4-----|--4--------2--0-----|
-----2--------------|-----3-----3--------|--------0--------0--|
--------------------|--------------------|-----0--------------|


  E  E  E  E  E  E     E  E  E  E  E  E     E  E  E  E  E  E   
--------------------|--------------------|--------------------|
--------------0-----|--------------------|-----------------0--|
--------0-----------|--2-----0-----------|--------------0-----|
--------------------|--------------4--0--|--2-----2--4--------|
--2-----------------|-----0-----0--------|-----2--------------|
-----5-----5-----5--|--0-----------------|--2-----------------|


  E  E  E  E  E  E     E  E  E  E  E  E     E  E  E  E  E  E   
--------------------|--------------------|--------------------|
--0--------------0--|--------------------|--------------------|
--------------0-----|--2--------------2--|--2-----------------|
--------2--4--------|-----------2--4-----|--------0--2--4--0--|
-----3--------------|--------0-----------|-----2--------------|
--------------------|-----0--------------|--------------------|


  E  E  E  E  E  E     E  E  E  E  E  E       E  E  E  E  E  E   
--------------------|--------------------||---------------------|
--------0-----------|--------------------||---------------0-----|
-----------------0--|--2--------0--------||*--------0--------0--|
--2-----------4-----|--------------4--0--||*--2--------2--------|
-----3-----3--------|--------0-----------||------2--------------|
--------------------|-----0--------------||---2-----------------|


  H.              E  E  E  E  E  E     E  E  E  E  E  E     E  E  E  E  E  E   
--0------------|--0-----------7-----|--7-----------5--3--|--2-----------3-----|
---------------|--------0-----------|--------0-----------|--------3-----------|
---------------|-----0-----0-----0--|-----0-----0--------|-----2-----2-----2--|
---------------|--2-----------------|--------------------|--0-----------------|
---------------|--------------------|--3-----------------|--------------------|
---------------|--------------------|--------------------|--------------------|


  E  E  E  E  E  E     E  E  E  E  E  E     E  E  E  E  E  E   
--5-----2-----------|--0-----------2--3--|--2-----------------|
--------------3-----|--------0-----------|--------------3-----|
--------------------|-----0-----0--------|-----------------2--|
-----4-----4-----4--|--------------------|--------0-----------|
--2-----------------|--3-----------------|-----0-----0--------|
--------------------|--------------------|--0-----------------|


  E  E  E  E  E  E     E  E  E  E  E  E     E  E  E  E  E  E   
--------------------|--------------------|--0-----------7-----|
--0-----------------|--------------0-----|--------0-----------|
--------0-----2-----|--2-----0-----------|-----0-----0-----0--|
-----0-----0-----0--|-----------0-----0--|--------------------|
--------------------|-----5--------------|--------------------|
--5-----------------|--4-----------------|--2-----------------|


  E  E  E  E  E  E     E  E  E  E  E  E     E  E  E  E  E  E   
--7-----------5--3--|--2-----------3-----|--5-----2-----------|
--------0-----------|--------3-----------|--------------3-----|
-----0-----0--------|-----2-----2-----2--|--------------------|
--------------------|--0-----------------|-----4-----4-----4--|
--3-----------------|--------------------|--2-----------------|
--------------------|--------------------|--------------------|


  E  E  E  E  E  E     E  E  E  E  E  E     E  E  E  E  E  E   
--0-----------2--3--|--5-----------2-----|--0-----------------|
--------0-----------|--------------------|--------------------|
-----0-----0--------|--------------------|--------------0-----|
--------------------|--------0-----------|--------2--------2--|
--3-----------------|-----0-----0-----0--|-----2-----2--------|
--------------------|--0-----------------|--2-----------------|


  E  E  E  E  E  E     E  E  E  E  E  E     E  E  E  E  E  E   
--------------------|--------------------|--------------------|
--0-----------------|--0-----------3-----|--2--------0--------|
-----0--------0--2--|--------0-----------|--------2-----2-----|
--------2-----------|-----0-----0-----0--|-----2-----------2--|
-----------2--------|--------------------|--0-----------------|
--------------------|--5-----------------|--------------------|


  E  E  E  E  E  E     E  E  E  E  E  E     E  E  E  E  E  E   
--------2-----0-----|--0-----------------|--------------------|
--0-----------------|--------3-----2-----|--0-----------3-----|
--------------------|--------------------|--------0-----------|
-----0-----0-----0--|-----2-----2-----2--|-----0-----0-----0--|
--------------------|--0-----------------|--------------------|
--5-----------------|--------------------|--5-----------------|


  E  E  E  E  E  E     E  E  E  E  E  E     Q    Q    Q     
--0-----------------|--------------------|-----------------|
-----------3--2-----|-----------4--------|-----------------|
--------2-----------|--4-----4-----4-----|--4----4----2----|
-----2-----------2--|-----4-----------4--|--4--------------|
--0-----------------|--2-----------------|--2--------------|
--------------------|--------------------|-----------------|


  E  E  E  E  E  E     E  E  E  E  E  E     E  E  E  E  E  E   
--------------------|--------------------|--------------------|
-----------------0--|--------------------|--------------------|
--2--------2--------|--------------------|--0-----------0-----|
--------2-----------|--2-----2-----4-----|-----4--2-----------|
-----3--------3-----|-----3-----3-----3--|--------------------|
--------------------|--------------------|--2--------2-----2--|


  E  E  E  E  E  E     E  E  E  E  E  E     E  E  E  E  E  E   
--------------------|--------------------|--------------------|
--0--------0--------|-----------------0--|--------------------|
--------------2--0--|--2--------2--------|--------------------|
--------------------|--------2-----------|--2-----2-----4-----|
--------2-----------|-----3--------3-----|-----3-----3-----3--|
-----2--------------|--------------------|--------------------|


  E  E  E  E  E  E     Q    E  E  Q       E  E  E  E  E  E   
--------------------|----------0-------|--0-----------------|
--------------------|--0----L-----3----|--------------------|
--0-----------0-----|------------------|-----------0--------|
-----4--2-----------|------------------|--------2-----2-----|
--------------------|------------------|-----2-----------2--|
--2--------2-----2--|------------------|--2-----------------|


  E  E  E  E  E  E     E  E  E  E  E  E     E  E  E  E  E  E   
--------------------|--------------------|--------------0-----|
--0-----------0--3--|--2--------2--------|-----------2-----3--|
-----0-----0--------|--------2-----2-----|--------2-----------|
--------2-----------|-----2-----------2--|-----2--------------|
--------------------|--0-----------------|--0-----------------|
--------------------|--------------------|--------------------|


  E  E  E  E  E  E     E  E  E  E  E  E     E  E  E  E  E  E   
--0-----------------|--------------------|--------------------|
-----------0--------|--------------0--3--|--2--------2--------|
--------0-----0-----|--------0-----------|--------2-----2-----|
-----2-----------2--|-----2--------------|-----2-----------2--|
--3-----------------|--3--------3--------|--0-----------------|
--------------------|--------------------|--------------------|


  E  E  E  E  E  E     E  E  E  E  E  E     E  E  E  E  E  E   
--0-----------------|--------------------|--------------------|
-----2-----2--------|--2-----------2-----|--2--------0-----2--|
--------2-----2-----|--------2-----------|-----2--------2-----|
-----------------2--|-----2-----2-----2--|--------2-----------|
--------------------|--0-----------------|--0-----------------|
--------------------|--------------------|--------------------|


  E  E  E  E  E  E     E  E  E  E  E  E     E  E  E  E  E  E   
--------------------|--------------------|--------------------|
--0-----------------|--------------0-----|--2--------3--2-----|
--------0-----------|--------0-----------|--------2-----------|
--------------4-----|--2-----------------|-----2-----------2--|
-----5-----5-----5--|-----5-----5-----5--|--0-----------------|
--5-----------------|--5-----------------|--------------------|


  E  E  E  E  E  E     E  E  E  E  E  E     E  E  E  E  E  E   
--------------------|--------0-----------|--------------------|
--2--------0-----2--|--0-----------------|--0-----2-----3-----|
-----2--------2-----|--------------2-----|--------------------|
--------2-----------|-----0-----0-----0--|-----0-----0-----0--|
--0-----------------|--------------------|--------------------|
--------------------|--5-----------------|--5-----------------|


  E  E  E  E  E  E     E  E  E  E  E  E     E  E  E  E  E  E   
--0-----5-----3-----|--2-----0-----------|--------------------|
--------------------|--------------3-----|--------------------|
-----0-----0-----0--|-----2-----2-----2--|--------2-----0-----|
--------------------|--0-----------------|-----2-----2-----2--|
--3-----------------|--------------------|--------------------|
--------------------|--------------------|--2-----------------|


  E  E  E  E  E  E     E  E  E  E  E  E     E  E  E  E  E  E   
--------------------|--------------------|--------------------|
--------------------|--------------------|--------------------|
--------------------|--2-----------4--2--|--0-----------------|
--4-----2-----0-----|--------2-----------|--------0-----4-----|
-----0-----0-----0--|-----4-----4--------|-----2-----2-----2--|
--0-----------------|--------------------|--------------------|


  E  E  E  E  E  E     E  E  E  E  E  E     E  E  E  E  E  E   
--------------------|--------0-----2-----|--0-----5-----3-----|
--------------0-----|--3-----------------|--------------------|
--------2-----------|--------------------|-----0-----0-----0--|
--2-----------------|-----0-----0-----0--|--------------------|
-----2-----2-----2--|--------------------|--3-----------------|
--2-----------------|--0-----------------|--------------------|


  E  E  E  E  E  E     E  E  E  E  E  E     E  E  E  E  E  E   
--2-----0-----------|--------------------|--------------------|
--------------3-----|--------------------|--------------------|
-----2-----2-----2--|--------2-----0-----|--------------------|
--0-----------------|-----2-----2-----2--|--4-----2-----0-----|
--------------------|--------------------|-----0-----0-----0--|
--------------------|--2-----------------|--0-----------------|


  E  E  E  E  E  E     E  E  E  E  E  E       E  E  E  E  E  E   
--------------------|---------------------||--------------------|
--------------------|---------------------||--------------0-----|
--2-----------4--2--|--0-----------------*||--------0--------0--|
--------2-----------|--------0-----4-----*||--2--------2--------|
-----4-----4--------|-----2-----2-----2---||-----2--------------|
--------------------|---------------------||--2-----------------|


  H.              E  E  E  E  E  E     E  E  E  E  E  E     E  E  E  E  E  E   
--0------------|--------------------|--------------------|--------------------|
---------------|-----------------0--|--0--------------0--|--------------------|
---------------|--------------0-----|--------------0-----|--2--------------2--|
---------------|--------2--4--------|--------2--4--------|-----------2--4-----|
---------------|-----2--------------|-----3--------------|--------0-----------|
---------------|--2-----------------|--------------------|-----0--------------|


  E  E  E  E  E  E     E  E  E  E  E  E     E  E  E  E  E  E   
--------------------|--------------------|--------------------|
--------------------|--------0-----------|--------------------|
--2-----------------|-----------------0--|--------------------|
--------0--2--4--0--|--2-----------4-----|--4--------2--0-----|
-----2--------------|-----3-----3--------|--------0--------0--|
--------------------|--------------------|-----0--------------|


  E  E  E  E  E  E     E  E  E  E  E  E     E  E  E  E  E  E   
--------------------|--------------------|--------------------|
--------------0-----|--------------------|-----------------0--|
--------0-----------|--2-----0-----------|--------------0-----|
--------------------|--------------4--0--|--2-----2--4--------|
--2-----------------|-----0-----0--------|-----2--------------|
-----5-----5-----5--|--0-----------------|--2-----------------|


  E  E  E  E  E  E     E  E  E  E  E  E     E  E  E  E  E  E   
--------------------|--------------------|--------------------|
--0--------------0--|--------------------|--------------------|
--------------0-----|--2--------------2--|--2-----------------|
--------2--4--------|-----------2--4-----|--------0--2--4--0--|
-----3--------------|--------0-----------|-----2--------------|
--------------------|-----0--------------|--------------------|


  E  E  E  E  E  E     E  E  E  E  E  E     E  E  E  E  E  E     H.             
--------------------|--------------------|--------------------|--0------------||
--------0-----------|--------------------|--------------0-----|---------------||
-----------------0--|--2--------0--------|--------0--------0--|---------------||
--2-----------4-----|--------------4--0--|--2--------2--------|---------------||
-----3-----3--------|--------0-----------|-----2--------------|---------------||
--------------------|-----0--------------|--2-----------------|---------------||




Duration Legend
---------------
W - whole
H - half
Q - quarter
E - 8th
S - 16th
T - 32nd
X - 64th
. - note dotted
|-n-|  - n-tuplets


Tablature Legend
----------------
L - tied note

        
Comments

@archard (December 17, 2007 at 6:56 AM)

Very good arrangement, love the beginning.


@Tuxtey (December 18, 2007 at 2:48 AM)

I can't stop playing all of your arrangements :P


@IPWN3DURMOM (December 21, 2007 at 2:05 AM)

Hey will you tab the song "Castle in the Mist" by "Michiru Ohshima" from ico. Heres a youtube video with it http://www.youtube.com/watch?v=RtZmqNGAsfY


@Nicholas Evans (December 22, 2007 at 6:10 AM)

Ahhh so beautiful, this will be a favorite of mine for a long while! Keep up the amazing work!


@ajrock2000 (December 22, 2007 at 1:10 PM)

This is indeed a very sweet song, and not very difficult I might add.


@Nicktendo (February 04, 2008 at 4:15 PM)

Ahh, out of curiosity could someone remake this tab and separate the melody and the main? I'd be nice to play one or the other. Not that this one is bad or too hard, I'd just like to see what it sounds like alone.


@Anon (February 27, 2008 at 11:29 PM)

I'm an idiot. Can't understand the legends, even when I read what they mean. Could someone explain please what that means???. My mail is papelsanitario@gmail.com It would be nice if I could play this, but I first need to understand what Im seeing, thanks.


@woot (March 02, 2008 at 12:20 PM)

What's with all those Es an Hs?? dont get it...


@Kabukibear (March 02, 2008 at 8:04 PM)

they are marking the note duration. I'm going to simplfy this a bit so just know that this is relative to this particular piece. Think of it this way, this piece is in 3/4 time. What this means is that the main beat is in quarter notes and that there are 3 quarter notes for every measure. That may sound a little confusing so listen to this midi for an example.

http://two.xthost.info/kabukibear/4.MID

The drum beat I added is the main beat. It would be what you tap your foot or bob to if you were listening to it on the radio. There are 3 of those for every measure in this piece and they are called quarter notes. The reason they're called this is that a lot of music is written in 4/4 time which means there are 4 quarter notes in each measure. They break up the measure into 4 equal parts or "quarters," hence the name. You'll notice, however, that the guitar part is playing twice as many notes. What I mean is, for ever quarter note you hear on the drum, the guitar plays 2 notes. What it is doing is dividing each beat in half. So if you have 3 quarter notes in a measure, and the guitar plays 2 notes for every 1 quarter, what do you have? 6 EIGHTH notes. You see how that works? of you divide 3 quarter notes in half equally you get 6 eighth notes. These notes are half as long as quarter notes, meaning they sound and are played twice as fast. Count it out. If quarter notes are counted 1, 2, 3, 1, 2, 3, then eighth notes are counted 1, and, 2, and, 3, and, etc. Just fit the ands in between each number you count. If you are tapping your foot, your foot should hit on each number and come up on each and. It's all very mathmatical. That's all the letters mean, they are telling you how long to play the notes. In this case a lot of the notes are eighth notes, or E, so again, listen to how that works in the midi I included. Every time your foot hits, the guitar plays 2 equal notes.

H means halfnote. It follows the same principles as the others. If you remember that the fundamental beat in this piece is quarter notes, and you know that to make smaller note durations you split those quarters apart, then to make BIGGER note durations, it follows that you are adding those quarter notes together. A half note is equal to 2 quarter notes tied together. So it gets two beats. Now notice the dot that comes after the H? whenver you see a note duration with a dot after it, what it is telling you to do is to split the note in half, and add that half to the original note. Sound confusing? It really isn't. Think of it like this, a dotted half note...we already said that a half note is equal to 2 quarter notes yes? So a dotted half note means it is still equal to 2 quarter notes, but on top of that you add half of itself TO itself. So if a half note is equal to 2, then half of that is 1, so a dotted half note is equal to 2 + 1 or 3 beats. Since there are 3 beats per measure in this piece what it is telling you is to hold the note for all 3 beats of the measure.

I know this might all seem a little confusing but it can't hurt to reread what I wrote and listen to the midi again. Just know that they are ways of splitting up the measures of music evenly, so you know how long or short to play each note. I hope that helped somewhat.


@c4ndym4n (November 29, 2008 at 12:39 AM)

Love this one! I heard this one a while back but even though i loved the sound it had I didn't think it was interesting enough to keep me practicing. But that all just turned around :P. Thanks a bunch for the tab!