Gametabs
Home
Tabs
Random

Heal

Average rating: 5.000

3 ratings

Composer:

Tabber:

Style:

Instrument:

Created: October 18, 2012 at 12:00 AM

             Song-Heal
game-Ico
                      Artist- Michiru Oshima 
      Tabber-SirLancelot
 gtr.1

E||6------------------|6------------------|6------------------|6------------------|
B||--------8p6--------|--------8p6--------|--------8p6--------|--------8p6--------|
G||----------------8--|----------------8--|----------------8--|----------------8--|
D||-------------------|-------------------|-------------------|-------------------|
A||-------------------|-------------------|-------------------|-------------------|
E||-------------------|-------------------|-------------------|-------------------|



E||8------------------|8------------------|6------------------|6------------------|
B||--------8p6--------|--------8p6--------|--------8p6--------|--------8p6--------|
G||----------------8--|----------------8--|----------------8--|----------------8--|
D||-------------------|-------------------|-------------------|-------------------|
A||-------------------|-------------------|-------------------|-------------------|
E||-------------------|-------------------|-------------------|-------------------|

 gtr.2 
 
E||-------------------|-------------------|-------------------|-------------------|
B||-------------------|-------------------|-------------------|-------------------|
G||-------------------|7--5--7--5---------|-------------------|7--5--7--5---------|
D||6--8--6--8---------|-------------------|6--8--6--8---------|--------------8----|
A||-------------------|-------------------|-------------------|-------------------|
E||-------------------|-------------------|-------------------|-------------------|



E||-------------------|-------------------|-------------------|-------------------|
B||-------------------|-------------------|-------------------|-------------------|
G||-------------------|7--5--7--5---------|-------------------|7--5--7--5---------|
D||6--8--6--8---------|-------------------|6--8--6--8---------|--------------8----|
A||-------------------|-------------------|-------------------|-------------------|
E||-------------------|-------------------|-------------------|-------------------|



         This just repeats over and over, I've ignored the timing because I’m really not sure how to do it.
If you have any improvements or see any mistakes, feel free to point them out in the comments.
        
Comments

@Hakoria (October 20, 2012 at 2:26 PM)

It's a nice rendition, not easy to make such a serene/effected piece playable on guitar. GJ <: