Gametabs
Home
Tabs
Random

Sicilienne

Average rating: 5.000

3 ratings

Composer:

Tabber:

Style:

Instrument:

Created: May 14, 2016 at 12:00 AM

            Sicilienne
From Hyouka
Composed by Gabriel Faure/Kouhei Tanaka
Arramged by Brent quinn

Drop D tuning
~70bpm
6/8 time

   S  S  S  S  E   S  S  S  S  E     S  S  S  S  E   S  S  S  S  E     S  S  S  S  E   S  S  S  S  E
E|---------------------------------|-----------------------------3---|-6--------5--3---5-----------1---|
B|-------------3---------------3---|-------------3---3--------3------|-------3---------------3-----3---|
G|-------0--3------------0--3------|-0-----0--3---------0--3---------|----3--------3------2-----2------|
D|----0---------------0--------0---|----0------------3---------------|-2---------------3---------------|
A|---------------------------------|---------------------------------|---------------------------------|
D|-5---------------5---------------|-5-------------------------------|---------------------------------|


   S  S  S  S  E   S  S  S  S  E     S  S  S  S  S  S  Q    E     S  S  S  S  E   S  S  S  S  E
E|-------------0---------------0---|-------------------2--------|-----------------------------1---|
B|-3--------1--1---3--------1--1---|-3--------------3-----------|-------------3---3-----------3---|
G|-------3---------------3---------|-------------2--------------|-0-----0--3------------0--3------|
D|----3--------2------3--------2---|-4-----0--4-------------0---|----0------------0--3------------|
A|-1---------------1---------------|----0-----------------------|---------------------------------|
D|---------------------------------|-0--------------------------|-5-------------------------------|


   S  S  S  S  E   S  S  S  S  E     S  S  S  S  E   S  S  S  S  E     S  S  S  S  S  S  S  S  S  S  E
E|-4--------3--1---3---------------|---------------------------------|-----------------------------------|
B|-------------1------------0------|---------------------------------|----------------3--------------3---|
G|-1-----1---------0-----0-----0---|-0-----------2---0-----------3---|-0-----0-----3-----------0---------|
D|-1--3------------0--3--------3---|-2--------4--1---0--------4------|----0-----0-----------0-----0------|
A|---------------------------------|-3--1--1------------3--3---------|-----------------------------------|
D|---------------------------------|-----------------0---------------|-5-----------------5---------------|


   S  S  S  S  E   S  S  S  S  E     S  S  S  S  E   S  S  S  S  E     S  S  S  S  E   S  S  S  S  E
E|-----------------------------3---|-6--------5--3---5-----------1---|-------------0---------------0---|
B|-------------3---3--------3------|-------3---------------3-----3---|-3--------1--1---3--------1--1---|
G|-0-----0--3---------0--3---------|----3--------3------2-----2------|-------3---------------3---------|
D|----0------------3---------------|-2---------------3---------------|----3--------2------3--------2---|
A|---------------------------------|---------------------------------|-1---------------1---------------|
D|-5-------------------------------|---------------------------------|---------------------------------|


   S  S  S  S  S  S  E   E   E     S  S  S  S  E   S  S  S  S  E     S  S  S  S  E   S  S  S  S  E
E|-------------------3-----------|-----------------------------1---|-4--------3--1---3---------------|
B|-3--------------3------3---1---|-------------3---3-----------3---|-------------1------------0------|
G|-------------2-----------------|-0-----0--3------------0--3------|-1-----1---------0-----0-----0---|
D|-4-----0--4--------------------|----0------------0--3------------|-1--3------------0--3--------3---|
A|----0--------------------------|---------------------------------|---------------------------------|
D|-0-----------------------------|-5-------------------------------|---------------------------------|


   S  S  S  S  E   S  S  S  S  E     S  S  S  S  S  S  S  S  S  S  S  S    E.   S  E   E.   S  E
E|---------------------------------|-------------------------------------|-------------------------|
B|---------------------------------|----------------3-----------------3--|-3-------2--------1--2---|
G|-0-----------2---0-----------3---|-0-----3-----3-----------4-----4-----|-3----0--2---3-------3---|
D|-2--------4--1---0--------4------|----0-----0-----------0-----0--------|-5-----------1-----------|
A|-3--1--1------------3--3---------|-------------------------------------|-7-----------------------|
D|-----------------0---------------|-5-----------------5-----------------|-------------1-----------|


   E.   S  E   E.   S  E     E.   S  E   E.   S  E     E.   S  E   Q.      E.   S  E   E.   S  E
E|---------1---3-----------|-------------------------|------0--2---3-----|-------------------------|
B|-3----4------3-------3---|-0----------------1--2---|-3-----------3-----|-3-------2--------1--2---|
G|-2-----------3----2--1---|-0----0--2---3-------3---|-2----0--2---3-----|-3----0--2---3-------3---|
D|-3-----------------------|-2-------0---1-----------|-4-----------0-----|-5-----------1-----------|
A|-------------1-----------|-------------3-----------|-5-----------------|-7-----------------------|
D|-0-----------------------|-2-----------------------|-0-----------5-----|-------------1-----------|


   E.   S  E   E.   S  E     E.   S  E   E.   S  E     E.   S  E   Q.         Q.    Q. 
E|---------1---3-----------|-3-----------------------|------0--2---3--------|-3-----------|
B|-3----4------3-------3---|-3-------2--------1--2---|-3-----------3--------|-4-----3-----|
G|-2-----------1----0--1---|-3----0--2---3-------3---|-2----0--2---3--------|-2-----3-----|
D|-3-----------------------|-2-----------1-----------|-4-----------0--------|-------0-----|
A|-------------1-----------|-------------3-----------|-5--------------------|-------------|
D|-0-----------------------|-------------------------|-------------5--------|-3-----5-----|


   S  S  S  S  E   S  S  S  S  E     Q.    Q.      S  S  S  S  E   S  S  S  S  S  S  
E|-6--------5--6---5--------3--1---|-3-----------|-----------------------------------|
B|-8--------7--8---7-----------3---|-4-----3-----|-1------------------------------3--|
G|-----------------------------2---|-0-----3-----|-2--------2--3---2-----------2-----|
D|-----------------7--------0------|-------0-----|-------2--4--5---4-----0--4--------|
A|----0--7---------------0---------|-------------|----0--------4---0-----------------|
D|--------------------0------------|-3-----5-----|--------------------0--------------|

							        ~55BPM
   Q.    Q.      S  S  S  S  E   S  S  S  S  E     Q.    Q.      E.   S  E   E.   S  E
E|-3-----------|-6--------5--6---5--------3--1---|-3-----------|-------------------------|
B|-4-----3-----|-8--------7--8---7-----------3---|-4-----3-----|-1-----------3-------3---|
G|-0-----3-----|-----------------------------2---|-0-----3-----|-1----1--3---5-------2---|
D|-------0-----|-----------------7--------0------|-------0-----|-3-------5---4----2--4---|
A|-------------|----0--7---------------0---------|-------------|-5-------3---0-----------|
D|-3-----5-----|--------------------0------------|-3-----5-----|---------------------0---|

 ~70BPM
   S  S  S  S  E   S  S  S  S  E     S  S  S  S  E   S  S  S  S  E     S  S  S  S  E   S  S  S  S  E 
E|-----------------------------3---|-6--------5--3---5-----------1---|-------------0---------------0---|
B|-------------3---3--------3------|-------3---------------3-----3---|-3--------1--1---3--------1--1---|
G|-0-----0--3---------0--3---------|----3--------3------2-----2------|-------3---------------3---------|
D|----0------------3---------------|-2---------------3---------------|----3--------2------3--------2---|
A|---------------------------------|---------------------------------|-1---------------1---------------|
D|-5-------------------------------|---------------------------------|---------------------------------|

  
   S  S  S  S  S  S  Q    E     S  S  S  S  E   S  S  S  S  E     S  S  S  S  E   S  S  S  S  E 
E|-------------------2--------|-----------------------------1---|-4--------3--1---3---------------|
B|-3--------------3-----------|-------------3---3-----------3---|-------------1------------0------|
G|-------------2--------------|-0-----0--3------------0--3------|-1-----1---------0-----0-----0---|
D|-4-----0--4-------------0---|----0------------0--3------------|-1--3------------0--3--------3---|
A|----0-----------------------|---------------------------------|---------------------------------|
D|-0--------------------------|-5-------------------------------|---------------------------------|

				    3/8 TIME            ~55BPM              ~45BPM
   S  S  S  S  E   S  S  S  S  E     S  S  S  S  S  S    S  S  S  S  S  S    H.
E|---------------------------------|----------------3--|----------------3--|-3-----|
B|---------------------------------|-------------3-----|-------3-----3-----|-4-----|
G|-0-----------2---0-----------3---|-0-----3--0--------|----3-----3--------|-3-----|
D|-2--------4--1---0--------4------|----0--------------|-------------------|-1-----|
A|-3--1--1------------3--3---------|-------------------|-1-----------------|-1-----|
D|-----------------0---------------|-5-----------------|-------------------|-1-----|

   W
E|-L-----|
B|-L-----|
G|-L-----|
D|-L-----|
A|-L-----|
D|-L-----|




        
Comments

@thedstring (May 22, 2016 at 4:45 AM)

That was pretty awesome, favorited!