Gametabs
Home
Tabs
Random

Kimi ni Matsuwaru Mystery

Average rating: 3.000

2 ratings

Composer:

Tabber:

Style:

Instrument:

Created: November 29, 2013 at 12:00 AM

            Kimi ni Matsuwaru Mystery
Hyouka
Kyo Takada, Satomi Sato, Ai Kayano
corntastic
29 11 2013

e-------------------------------------------------------------------------
B-----------------6-------------------------------------------------------
G--8----8----8-------8--6--5-5--6-8---------------------------------------
D-------------------------------------------------------------------------
A-------------------------------------------------------------------------
E-------------------------------------------------------------------------

e---------------------6-------------------------7--6----------------------
B------------------9-----9----5-7-9--5-7-9--7-9---------------------------
G--8----8----8--8---------------------------------------------------------
D-------------------------------------------------------------------------
A-------------------------------------------------------------------------
E-------------------------------------------------------------------------

e-------------------------------------------------------------------------
B-------------------6----------------------------(9)----------------------
G--8--8--8----8--8-----8--6--5-5--6-8---(5--6--8)-------------------------
D-------------------------------------------------------------------------
A-------------------------------------------------------------------------
E-------------------------------------------------------------------------

e------------------------6----------8--9--6-----8--9--6-----6-------------
B--------------------9-9----9----9-----------8-----------8-------9-9------
G--8--8--8--8--8--8-------------------------------------------------------
D-------------------------------------------------------------------------
A-------------------------------------------------------------------------
E-------------------------------------------------------------------------

______________________________________________________________________________________


e------------------------------------(6)----------------------------------
B--8--9-(9--8-9)-------9--8--8(9-8-9)---(9)-------------------------------
G-------------------8-----------------------------------------------------
D-------------------------------------------------------------------------
A-------------------------------------------------------------------------
E-------------------------------------------------------------------------

e---------------------------------------------------------------------------
B-----9--8--9--9-------------9-------9--8--9--9--------8--9-------6--8--9L--
G--8--------------6--6----8-------8--------------8--8----------8------------
D---------------------------------------------------------------------------
A---------------------------------------------------------------------------
E---------------------------------------------------------------------------

e----------------------------------------6--------------------------------
B--------------6--8-6---8----9-9-9-9-8-9----------------------------------
G--8-8-8-8-8-8--------8---------------------------------------------------
D-------------------------------------------------------------------------
A-------------------------------------------------------------------------
E-------------------------------------------------------------------------

______________________________________________________________________________________


e--9-8---6L--------------9-8---6L-------6-8-------------------------------
B------8----------9-9--------9--------------------------------------------
G-------------------------------------------------------------------------
D-------------------------------------------------------------------------
A-------------------------------------------------------------------------
E-------------------------------------------------------------------------

e--9-8---6L--------------6-----------------------------(8--6)-------------
B------8----------9--9-9---9--8-----9--8-----9--8---------------(8)-------
G--------------------------------8--------8--------8----------------------
D-------------------------------------------------------------------------
A-------------------------------------------------------------------------
E-------------------------------------------------------------------------

e--9-8---6L--------------9-8---6L---------6-8--9--11----------------------
B------8----------9-9--------9----------9-------------9-------------------
G-------------------------------------------------------------------------
D-------------------------------------------------------------------------
A-------------------------------------------------------------------------
E-------------------------------------------------------------------------

e----------------------------------------9--8-----------------------------
B--9-8---9-8----9-8---9-11----9-8---9-11-------11--9----------------------
G------8------------8-------------8---------------------------------------
D-------------------------------------------------------------------------
A-------------------------------------------------------------------------
E-------------------------------------------------------------------------

e---------------------------------------9--8------------------------------
B--9-8---9-8----9-8---9-11Lb13----------------8--9------------------------
G------8------------8-----------------------------------------------------
D-------------------------------------------------------------------------
A-------------------------------------------------------------------------
E-------------------------------------------------------------------------

______________________________________________________________________________________


e-------------------------------------------------------------------------
B--9-9--9--9--7-----7-----------------------------------------------------
G----------------9-------------8------------------------------------------
D----------------------9----9---------------------------------------------
A-------------------------------------------------------------------------
E-------------------------------------------------------------------------

e------------------------7------------------------------------------------
B--9-9-9-9--9--7--9--11---------------------------------------------------
G-------------------------------------------------------------------------
D-------------------------------------------------------------------------
A-------------------------------------------------------------------------
E-------------------------------------------------------------------------

e-----7----------------------------7--------------------------------------
B--7-----11--7--7---------------7-----11--7--7---------------------7------
G-----------------------------------------------------9-9-9----8-9--------
D------------------9--11--------------------------------------------------
A-------------------------------------------------------------------------
E-------------------------------------------------------------------------

______________________________________________________________________________________


e--9-8---6L--------------9-8---6L-------6-8-------------------------------
B------8----------9-9--------9--------------------------------------------
G-------------------------------------------------------------------------
D-------------------------------------------------------------------------
A-------------------------------------------------------------------------
E-------------------------------------------------------------------------

e--9-8---6L--------------6-----------------------------(8--6)-------------
B------8----------9--9-9---9--8-----9--8-----9--8---------------(8)-------
G--------------------------------8--------8--------8----------------------
D-------------------------------------------------------------------------
A-------------------------------------------------------------------------
E-------------------------------------------------------------------------

e--9-8---6L--------------9-8---6L---------6-8--9--11----------------------
B------8----------9-9--------9----------9-------------9-------------------
G-------------------------------------------------------------------------
D-------------------------------------------------------------------------
A-------------------------------------------------------------------------
E-------------------------------------------------------------------------

e----------------------------------------9--8-----------------------------
B--9-8---9-8----9-8---9-11----9-8---9-11-------11--9----------------------
G------8------------8-------------8---------------------------------------
D-------------------------------------------------------------------------
A-------------------------------------------------------------------------
E-------------------------------------------------------------------------

e---------------------------------------9--8------------------------------
B--9-8---9-8----9-8---9-11Lb13----------------8--9------------------------
G------8------------8-----------------------------------------------------
D-------------------------------------------------------------------------
A-------------------------------------------------------------------------
E-------------------------------------------------------------------------
        
Comments

No comments yet