Gametabs
Home
Tabs
Random

That Time

Average rating: 5.000

4 ratings

Composer:

Tabber:

Style:

Instrument:

Created: January 14, 2014 at 12:00 AM

                                            Anokoro (That Time)
                          ~ from anime "Hourou-musuko" ~


Music by MONACA (Keiichi Okabe - 岡部啓一,Satoru Kousaki-神前暁,Keigo Hoashi-帆足圭吾)
tabber by to*morning

 3/4  Q=72 


   rubato....
E|-5-------|-5--3p2-3-|-5-------------|-----------|
A|-3----3--|-0--------|-2--3-3h5------|-3---3-----|
D|-2-------|----------|---------------|--------2--|
G|---------|----------|---------------|---4-------|
B|---------|----------|-0-------------|-2---------|
E|-2-------|-3--------|---------------|-----------|


|-2---3---2--|---------|-2---3---5--|-0----------|
|-3---3------|-3-------|-0---0------|--------3---|
|---0---0----|------2--|------------|-----2------|
|------------|---------|---0---0----|---2--------|
|------------|---------|------------|-0----------|
|-3----------|-2-------|-0----------|------------|


|-5---------|-5--3-2---|-----10--9--|-10------0--|
|-3------3--|-0--------|-10------8--|-------3----|
|-----2-----|----------|--6------9--|--7---------|
|---2-------|----------|---------8--|------------|
|-----------|----------|------------|------------|
|-2---------|-3--------|--0---------|--7---------|


|-2-----------|---------2--|------------|---------0---|
|---------3---|-----3------|-3-------3--|-----3-------|
|-----4-----4-|------------|-2---2------|-----2-------|
|---0---0-----|---4---4----|---4---4----|---3---3-----|
|-------------|------------|------------|-------------|
|-4-----------|-3----------|-2----------|-1-----------|


|-2----------|-/7---------|-3-----------|-3---2h3p2h3--||
|-----0---0--|------0---0-|-----0---0---|--------------||
|---0---0----|----0---0---|---0---0---0-|--------------||
|------------|------------|-------------|--------------||
|------------|------------|-0-----------|--------------||
|-0----------|------------|-------------|--------------||


|------------|---------3--|---------0---|---------2-|
|-3-------3--|-----3------|-----0-----0-|-----3-----|
|-----2------|---0---0----|-------------|-----2-----|
|---0---0----|------------|---2---2-----|---4---4---|
|------------|------------|-0-----------|-2---------|
|-2----------|-3----------|-------------|-----------|


|---------3--|---------0--|-----3---0--|-------------|
|-----0------|-----3------|-----0------|-3-------2---|
|-----0------|-----2------|-----0------|-----2-------|
|---0---0----|---0---0----|---2---2----|---2---2-----|
|------------|------------|------------|-0-----------|
|-3----------|-2----------|-0----------|-------------|


|-------------|---------3---|---------0---|---------2---|
|-3-------3---|-----3-----3-|-----0-----0-|-----3-------|
|-2---2-----2-|---0---0-----|-----2-------|-----2-------|
|---0---0-----|-------------|---2---2-----|---4---4-----|
|-------------|-------------|-0-----------|-2-----------|
|-2-----------|-3-----------|-------------|-------------|

                                             rit...fermete
|---------3--|------------|---------0--|-----3---2----|
|-----0------|-3-------3--|-----0------|-----3---2----|
|-----0------|-2---2------|-----0------|-----4---4----|
|---0---0----|---0---0----|---2---2----|---2---2---2--|
|------------|------------|------------|-0------------|
|-3----------|-2----------|-0----------|--------------|


|-^2----*|
|-^0----*|
|-^2----*|
|-^0----*|
|-------*|
|-^3----*|fine.


        
Comments

@diralark (January 18, 2014 at 1:44 PM)

just a YT link is missing

http://www.youtube.com/watch?v=nthsR6_X3jA

Many thanks !