Gametabs
Home
Tabs
Random

The Day You and the Sun Died

Average rating: 5.000

1 ratings

Composer:

Tabber:

Style:

Instrument:

Created: October 28, 2010 at 12:00 AM

                    Kimi to Taiyou ga Shinda Hi          


                                Kurosaki Maon
rhythmR



        PM PM    PM                
     E  S  S  E  S  E  E  E  E  S  
D||-------------------------------|
A||-----------------------8--L--L-|
F||-----------------4--5--7--L--L-|
C||--3--------3-----3--3----------|
G||--3--------3-------------------|
D||--1--1--1--1--1----------------|


     PM PM    PM                 
  E  S  S  E  S  E  E   E  S E   
--------------------------------|
--------------------------------|
-----------------4--5s--7--5-4--|
--3--------3-----3--3s--5--3-3--|
--3--------3--------------------|
--1--1--1--1--1-----------------|


     PM PM    PM                 
  E  S  S  E  S  E  E   E  E  S  
--------------------------------|
-----------------------\5--L--L-|
-----------------4--5--\5--L--L-|
--7--------7-----5--5-----------|
--7--------7--------------------|
--5--5--5--5--5-----------------|


     PM PM    PM                 
  E  S  S  E  S  E  S S E  E  S  
--------------------------------|
--------------------------------|
-----------------5--4-5-4-------|
--7--------7-----5--5-5-5--7--L-|
--7--------7--------------------|
--5--5--5--5--5-----------------|


     PM PM                     
  E  S  S  E  S E  E  E  E  S  
------------------------------|
----------------------8--L--L-|
----------------4--5--7--L--L-|
--3--------3----3--3----------|
--3--------3------------------|
--1--1--1--1--1---------------|


     PM PM    PM                 
  E  S  S  E  S  E  E   E  S E   
--------------------------------|
--------------------------------|
-----------------4--5s--7--5-4--|
--3--------3-----3--3s--5--3-3--|
--3--------3--------------------|
--1--1--1--1--1-----------------|


     PM PM    PM                 
  E  S  S  E  S  E  E   E  E  S  
--------------------------------|
-----------------------\5--L--L-|
-----------------4--5--\5--L--L-|
--7--------7-----5--5-----------|
--7--------7--------------------|
--5--5--5--5--5-----------------|


   E.  E.  E.  E.  Q     
------------------------|
------------------------|
--10---9---7---5---4----|
------------------------|
---8---7---5---3---2----|
------------------------|


     PM PM    PM                
  E  S  S  E  S  E  E  E  E  S  
-------------------------------|
-----------------------8--L--L-|
-----------------4--5--7--L--L-|
--3--------3-----3--3----------|
--3--------3-------------------|
--1--1--1--1--1----------------|


     PM PM    PM                 
  E  S  S  E  S  E  E   E  S E   
--------------------------------|
--------------------------------|
-----------------4--5s--7--5-4--|
--3--------3-----3--3s--5--3-3--|
--3--------3--------------------|
--1--1--1--1--1-----------------|


     PM PM    PM                 
  E  S  S  E  S  E  E   E  E  S  
--------------------------------|
-----------------------\5--L--L-|
-----------------4--5--\5--L--L-|
--7--------7-----5--5-----------|
--7--------7--------------------|
--5--5--5--5--5-----------------|


  E  S S S S S S E   S  E   S  E   
--7--7-7-7-7-8-8-8--10-10--13-13--|
----------------------------------|
--4--4-4-4-4-5-5-5---7--7--10-10--|
----------------------------------|
----------------------------------|
----------------------------------|


     PM PM    PM                
  E  S  S  E  S  E  E  E  E  S  
-------------------------------|
-----------------------8--L--L-|
-----------------4--5--7--L--L-|
--3--------3-----3--3----------|
--3--------3-------------------|
--1--1--1--1--1----------------|


     PM PM    PM                 
  E  S  S  E  S  E  E   E  S E   
--------------------------------|
--------------------------------|
-----------------4--5s--7--5-4--|
--3--------3-----3--3s--5--3-3--|
--3--------3--------------------|
--1--1--1--1--1-----------------|


     PM      PM                 
  E  S  S E  S  E  E   E  E  S  
-------------------------------|
----------------------\5--L--L-|
----------------4--5--\5--L--L-|
--7-------7-----5--5-----------|
--7-------7--------------------|
--5--5--5-5--5-----------------|


  E.  E.  E   E.  E.  E   
-------------------------|
-------------------------|
--9---7---9--10---9---7--|
-------------------------|
--7---5---7---8---7---5--|
-------------------------|


     PM PM       PM           PM PM PM  
  E  S  S  S S S S  S S S S S S  S  S   
---------------------------------------|
---------------------------------------|
---------------------------------------|
-----------------5--3------------------|
--3--------5-3----------5-3------------|
--1--1--1---------------------1--3--1--|


     PM PM                          
  E  S  S  S S S S S S S S S S S S  
-----------------------------------|
-----------------------------------|
-----------------------------------|
--3--------------5-3---------------|
--3--------5-3---------5-3---------|
--1--1--1--------------------1-3-1-|


     PM PM                            
  E  S  S  S S S  S S S S S S  S S S  
-------------------------------------|
-------------------------------------|
-------------------------------------|
--7---------------------9-7----------|
--7--------7-5---10-7---------10-7---|
--5--5--5----------------------------|


     PM PM        PM                
  E  S  S  S S S  S S S S S S E  S  
-----------------------------------|
-----------------------------------|
-----------------------------------|
--7---------------------9-7--------|
--7--------7-5---10-7---------5----|
--5--5--5---------------------3--L-|


     PM PM                   PM PM PM  
  E  S  S  S S S S S S S S S S  S  S   
--------------------------------------|
--------------------------------------|
--------------------------------------|
-----------------5-3------------------|
--3--------5-3---------5-3------------|
--1--1--1--------------------1--3--1--|


     PM PM                   PM PM PM  
  E  S  S  S S S S S S S S S S  S  S   
--------------------------------------|
--------------------------------------|
--------------------------------------|
--3--------------5-3------------------|
--3--------5-3---------5-3------------|
--1--1--1--------------------1--3--1--|


     PM PM                            
  E  S  S  S S S  S S S S S S  S S S  
-------------------------------------|
-------------------------------------|
-------------------------------------|
--7---------------------9-7----------|
--7--------7-5---10-7---------10-7---|
--5--5--5----------------------------|


  PM PM     PM            PM           
  S  S  S S S   S S S S S S  S S S E   
--------------------------------------|
--------------------------------------|
-----------------------------9-7------|
----------------------9-7--------7-9--|
--0--0--7-5-0--10-7-0-----0-----------|
--------------------------------------|


     PM PM    PM                
  E  S  S  E  S  E  E  E  E  S  
-------------------------------|
-----------------------8--L--L-|
-----------------4--5--7--L--L-|
--3--------3-----3--3----------|
--3--------3-------------------|
--1--1--1--1--1----------------|


     PM PM    PM                 
  E  S  S  E  S  E  E   E  S E   
--------------------------------|
--------------------------------|
-----------------4--5s--7--5-4--|
--3--------3-----3--3s--5--3-3--|
--3--------3--------------------|
--1--1--1--1--1-----------------|


     PM PM    PM                 
  E  S  S  E  S  E  E   E  E  S  
--------------------------------|
-----------------------\5--L--L-|
-----------------4--5--\5--L--L-|
--7--------7-----5--5-----------|
--7--------7--------------------|
--5--5--5--5--5-----------------|


     PM PM    PM                 
  E  S  S  E  S  E  S S E  E  S  
--------------------------------|
--------------------------------|
-----------------5--4-5-4-------|
--7--------7-----5--5-5-5--7--L-|
--7--------7--------------------|
--5--5--5--5--5-----------------|


     PM PM    PM                
  E  S  S  E  S  E  E  E  E  S  
-------------------------------|
-----------------------8--L--L-|
-----------------4--5--7--L--L-|
--3--------3-----3--3----------|
--3--------3-------------------|
--1--1--1--1--1----------------|


     PM PM    PM                 
  E  S  S  E  S  E  E   E  S E   
--------------------------------|
--------------------------------|
-----------------4--5s--7--5-4--|
--3--------3-----3--3s--5--3-3--|
--3--------3--------------------|
--1--1--1--1--1-----------------|


     PM      PM                 
  E  S  S E  S  E  E   E  E  S  
-------------------------------|
----------------------\5--L--L-|
----------------4--5--\5--L--L-|
--7-------7-----5--5-----------|
--7-------7--------------------|
--5--5--5-5--5-----------------|


   E.  E.  E.  E.  Q     
------------------------|
------------------------|
--10---9---7---5---4----|
------------------------|
---8---7---5---3---2----|
------------------------|


     PM PM    PM                
  E  S  S  E  S  E  E  E  E  S  
-------------------------------|
-----------------------8--L--L-|
-----------------4--5--7--L--L-|
--3--------3-----3--3----------|
--3--------3-------------------|
--1--1--1--1--1----------------|


     PM PM    PM                 
  E  S  S  E  S  E  E   E  S E   
--------------------------------|
--------------------------------|
-----------------4--5s--7--5-4--|
--3--------3-----3--3s--5--3-3--|
--3--------3--------------------|
--1--1--1--1--1-----------------|


     PM PM    PM                 
  E  S  S  E  S  E  E   E  E  S  
--------------------------------|
-----------------------\5--L--L-|
-----------------4--5--\5--L--L-|
--7--------7-----5--5-----------|
--7--------7--------------------|
--5--5--5--5--5-----------------|


  E  S S S S S S E   S  E   S  E   
--7--7-7-7-7-8-8-8--10-10--13-13--|
----------------------------------|
--4--4-4-4-4-5-5-5---7--7--10-10--|
----------------------------------|
----------------------------------|
----------------------------------|


     PM PM                     
  E  S  S  E  S E  E  E  E  S  
------------------------------|
----------------------8--L--L-|
----------------4--5--7--L--L-|
--3--------3----3--3----------|
--3--------3------------------|
--1--1--1--1--1---------------|


     PM PM    PM                 
  E  S  S  E  S  E  E   E  S E   
--------------------------------|
--------------------------------|
-----------------4--5s--7--5-4--|
--3--------3-----3--3s--5--3-3--|
--3--------3--------------------|
--1--1--1--1--1-----------------|


     PM PM    PM                 
  E  S  S  E  S  E  E   E  E  S  
--------------------------------|
-----------------------\5--L--L-|
-----------------4--5--\5--L--L-|
--7--------7-----5--5-----------|
--7--------7--------------------|
--5--5--5--5--5-----------------|


  E.  E.  E   E.  E.  E    
-------------------------||
-------------------------||
--9---7---9--10---9---7--||
-------------------------||
--7---5---7---8---7---5--||
-------------------------||




Duration Legend
---------------
W - whole
H - half
Q - quarter
E - 8th
S - 16th
T - 32nd
X - 64th
. - note dotted
|-n-|  - n-tuplets


Tablature Legend
----------------
L - tied note
x - dead note
g - grace note
(n) - ghost note
> - accentuded note
NH - natural harmonic
AH - artificial harmonic
TH - tapped harmonic
SH - semi harmonic
PH - pitch harmonic
h - hammer on
p - pull off
b - bend
br - bendRelease
pb - preBend
pbr - preBendRelease
brb - bendReleaseBend
\n/ - tremolo bar dip
\n - tremolo bar dive
-/n - tremolo bar Release up
/n\ - tremolo bar inverted dip
/n - tremolo bar return
-\n - tremolo bar Release down
S - shift slide
s - legato slide
/ -  slide into from below or out of upwards
\ -  slide into from above or out of downwards
~ - vibrato
W - wide vibrato
tr - trill
TP - tremolo picking
T - tapping
S - slap
P - pop
< - fade in
^ - brush up
v - brush down

        
Comments

No comments yet