Gametabs
Home
Tabs
Random

Opening Theme

Average rating: 4.000

1 ratings

Composer:

Tabber:

Style:

Instrument:

Created: October 27, 2012 at 12:00 AM

            Highschool of the Dead by Sevensquared

Key: h:hammer on, s:Slide, B:Break,  L:Let ring

Tempo=100bpm

Intro
    S S S E S S E S S E S E   S S S E S S E S S E S E   S S S E S S E S S E S E
E||-------0-----------------|-------0-----------------|-------0------------------------|
B||-0-0h3---3-0-------------|-0-0h3---3-0-------------|-0-0h3---3-0--------------------|
G||-------------2-2-2-3-3-3-|-------------2-2-2-3-2-0-|-------------2-2-2-3-3-3--------|
D||-------------------------|-------------------------|--------------------------------|
A||-------------------------|-------------------------|--------------------------------|
E||-------------------------|-------------------------|--------------------------------|

    S S S E S S E S S E S E   E E E. E.Q   E S S S E S E S S S E S   E S S S E S E E E E
E||-------0-----------------|------------|-----------B-----------B-|-----------B---------|
B||-0-0h3---3-0-------------|-------15s1-|-----------B-----3-----B-|-----------B-1-0-----|
G||-------------2-2-2-3-3-3-|------------|-0-0h2-0-0-B-0-0---0-0-B-|-0-0-2-----B-----2-0-|
D||-------------------------|------------|-2--------LB-2-------L-B-|-0---L-4-4-B---------|
A||-------------------------|-1-1-1------|-----------B-----------B-|-----------B---------|
E||-------------------------|------------|-----------B-----------B-|-----------B---------|

                                     Vocals
    E S S S E S S S S S E S S   S E E E E E Q S   E.S S S Q Q.  E E EE Q E E   E E Q Q Q 
E||-----------B---------------|---------3-B-----|---B-------B-|-B------------|-----------|
B||-----------B-----3---------|-----1-0-0-B-3-L-|-L-B-1-1-0-B-|-B------------|-----------|
G||-0-0h2-0-0-B-0-0---0-0---4-|-L-2-------B-0-L-|-L-B-------B-|-B----0-0---0-|-L-0-2-0---|
D||-2-------L-B-2-------L-0-0-|-L-0-------B-----|---B-------B-|-B-0-2--2-4-2-|-L---2-2-4-|
A||-----------B---------------|-----------B-----|---B-------B-|-B------------|---------2-|
E||-----------B---------------|-----------B-----|---B-------B-|-B------------|-----------|

    E E Q S E.E E   S Q S S E E E S S S   Q.S E E E E S   H S S E.E.
E||---------------|-----B---------------|-------------B-|-----------|
B||---------3-----|-----B---3-----------|-------------B-|---------1-|
G||-0-2-0-0-0-0-0-|---0-B-0-0-0-0-2-2-0-|-L-0-0-0-0---B-|-------2-2-|
D||-----2---------|-4---B-------------2-|-L---------4-B-|-4-4h5-4---|
A||---------------|---3-B---------------|-------------B-|-----------|
E||---------------|-----B---------------|-------------B-|-----------|
    E.S E S S E E E E   S S S S S S S S S S E E E   S H Q.  E Q E H   H Q Q
E||-------------------|---------------------------|-----B-|---------|-B-----|
B||-0-----------------|---------------------1-0---|-0-0-B-|---3-----|-B---1-|
G||-0-0-0-0-0-0---0-2-|-L-2-0-0-0-0-0-0-0-2-----2-|-----B-|-0-0-0---|-B-0-0-|
D||-------------4-----|---------------------------|-----B-|-0-----4-|-B---2-|
A||-------------------|---------------------------|-----B-|-----3-5-|-B-----|
E||-------------------|---------------------------|-----B-|---------|-B-----|

    E S H.S   E S E E E E Q S   S S E E.S S S E.S S   S S E E E.E Q S   E S H.S 
E||---------|-----------------|---------------------|-----------------|---------|
B||-L-0-0-L-|-0-0---0-3-------|---------------------|-------------1-L-|-L-0-0-L-|
G||-L---0-L-|-----2-------0-0-|-0-0---0-0-0-0---0-0-|-0-0-2-0-2-0-0-L-|-L---0-L-|
D||-L---0-L-|-----------4-2---|-----4---------4-----|-----0-0-0---2-L-|-L---0-L-|
A||---------|-----------------|---------------------|-----------------|---------|
E||---------|-----------------|---------------------|-----------------|---------|
    E S E E E E Q S   S S E E.S S S E.S S   S S E E E.E S S S S S
E||-----------------|---------------------|---------------0-7-5-3-|
B||-0-0---0-3-------|---------------------|-----------------------|
G||-----2-------0-0-|-0-0---0-0-0-0---0-0-|-0-0-2-0-2-0-0---------|
D||-----------4-2---|-----4---------4-----|-----------------------|
A||-----------------|---------------------|-----------------------|
E||-----------------|---------------------|-----------------------|

                                                Outro
    S E E S S S S E E S S S   S E E S S S S S S S S S S   S E E S S S S E E S S S
E||-2---0-7-5-3-2---0-7-5-3-|-2---------------B-0-7-5-3-|-2---0-7-5-3-2---0-7-5-3-|
B||---3-----------3---------|---3-1-1-1-3-3-3-B---------|---3-----------3---------|
G||-------------------------|-----------------B---------|-------------------------|
D||-------------------------|-----------------B---------|-------------------------|
A||-------------------------|-----------------B---------|-------------------------|
E||-------------------------|-----------------B---------|-------------------------|

    S E E S S E Q..
E||-2-------------|
B||---3-1-1-1-3-3-|
G||---------------|
D||---------------|
A||---------------|
E||---------------|
        
Comments

No comments yet