Gametabs
Home
Tabs
Random

Karinui

Average rating: 5.000

3 ratings

Composer:

Tabber:

Style:

Instrument:

Created: November 29, 2012 at 12:00 AM

            Title: Ending Strings
SubTitle: Jigoku Shoujo (Hell Girl)
Artist: Mamiko Noto
Music: Tabbed by Mitch Jackson
Tempo = 145

T/S = 8/4

Just a short piece i loved to hear that always played as an episode was ending :3
I tabbed it from the credits song 'Karinui' in which this section plays in the verse.


      Q     E  E  Q     E  Q     E  H.                     Q     E  E  Q     E  Q     E  E  E  E  E  Q                                                  
E ||--------0-----3-----5--0----------------------------|--------------------5-----------------------5-------|
B ||--------------1--------------1----------------------|--------------8--------5--------------8-------------|
G ||o----------2--------2-----------2-------------------|--------7-----7--------------------7-----7----------|
D ||o-------2-------------------------------------------|--------5--7--------7--------7--5-------------------|
A ||--0-------------------------------------------------|----------------------------------------------------|
D ||----------------------------------------------------|--5-------------------------------------------------|

                                                     
      Q     E  E  Q     E  Q     E  H.                     Q     E  E  Q     E  Q     E  E  E  E  E  Q
   |--------------3-----5--0----------------------------|--------------3-----5--0--------------3-----5-------|
   |--------1-----1-------------------------------------|--------3-----3--------------3-----3-----3----------|
   |--------0--2--------2--------5--2-------------------|-----------0--------2-----------0-------------------|
   |----------------------------------------------------|--------4-------------------------------------------|
   |----------------------------------------------------|----------------------------------------------------|
   |--3-------------------------------------------------|--2-------------------------------------------------|


      Q     E  E  Q     E  Q     E  H.                     Q     E  E  Q     E  Q     E  E  E  E  E  Q                                             
   |--------------3-----5--0----------------------------|--------------3-----5-----------------------5-------|
   |--------3-----1--------------1----------------------|--------1-----0--------5--------------8-------------|
   |--------0--2--------2-----------2-------------------|--------0--2-----------------5-----7-----7----------|
   |--------0-------------------------------------------|--------------------------------5-------------------|
   |----------------------------------------------------|--3-------------------------------------------------|
   |--0-------------------------------------------------|----------------------------------------------------|

                                                                                  ^
      Q     E  E  Q     E  E  E  E  Q     H                Q     Q     H          W                                    
   |--------------2-----5--0----------------------------|--4----------------------0--------------------------|||
   |--------3-----------------5-------------------------|-------------------------0--------------------------|||
   |-----------2--------2--------4--2-----2-------------|--------------1----------1-------------------------o|||
   |--------4-------------------------------------------|--------2----------------2-------------------------o|||
   |--2-------------------------------------------------|-------------------------2--------------------------|||
   |----------------------------------------------------|--2----------------------2--------------------------|||


        
Comments

@yashakenkyaku (December 01, 2012 at 3:14 AM)

Nicely done. ^_^