Gametabs
Home
Tabs
Random

Winter Theme

Average rating: 5.000

2 ratings

Composer:

Tabber:

Style:

Instrument:

Created: June 14, 2009 at 12:00 AM

            Harvest Moon: Back To Nature - Winter Theme
Composed by: Miyuki Homareda
Tabbed by: Edo Pablico
June 13, 2009


e||---------12--------------10-------|---------8-------7----------------|
B||-12------12------10------10-------|-8-------8-------7-------7--------|
G||-12--------------11---------------|-9-----------------------7--------|
D||----------------------------------|----------------------------------|
A||----------------------------------|----------------------------------|
E||-12--------------10---------------|-8---------------7----------------|

e|-0-------2---3---5-------2--------|-------------------------2--------|
B|-1---------------3----------------|-3---------------4----------------|
G|-----------------2----------------|-0---------------4----------------|
D|-----------------0----------------|----------------------------------|
A|-3--------------------------------|-----------------2----------------|
E|----------------------------------|-0--------------------------------|


e|-3-------2---3---5----------------|-5-------3---5---7----------------|
B|-0-----------------------3--------|-0-----------------------5--------|
G|-0-----------------------2--------|-0-----------------------4--------|
D|----------------------------------|----------------------------------|
A|----------------------------------|----------------------------------|
E|-0---------------2----------------|-3---------------4----------------|

e|-8---7---5------------------------|-0--------------------------------|
B|-5-----------8---8-------7--------|-0--------------------------------|
G|-5---------------8----------------|----------------------------------|
D|----------------------------------|-----2---5---4---2----------------|
A|-0--------------------------------|----------------------------------|
E|-----------------7----------------|-0--------------------------------|


e|-0-------5---------------3--------|---------1-------0----------------|
B|-0---------------3----------------|-1---------------1----------------|
G|-2---------------0----------------|-2---------------0----------------|
D|----------------------------------|-0--------------------------------|
A|----------------------------------|-----------------3----------------|
E|-1---------------0----------------|----------------------------------|

e|-5---7---8---5---7----------------|-8-----------------------8---10---|
B|-------------------------5--------|-5--------------------------------|
G|----------------------------------|-5--------------------------------|
D|-3--------------------------------|----------------------------------|
A|-----------------7----------------|-0--------------------------------|
E|----------------------------------|----------------------------------|

e|-12--------------10---------------|-10------8---7---5-------5---7----|
B|---------10--------------8--------|-9---------------5----------------|
G|---------10--------------9--------|-----------------5----------------|
D|----------------------------------|----------------------------------|
A|-8---------------7----------------|-7---------------0----------------|
E|----------------------------------|----------------------------------|

e|-8-------10--12--10------7--------|-5-----------------------5--------|
B|-10--------------9----------------|-7---------------8----------------|
G|----------------------------------|-7---------------7----------------|
D|----------------------------------|----------------------------------|
A|-8---------------7----------------|-5--------------------------------|
E|----------------------------------|----------------------------------|

e|-7-------8-------7-------5--------|-3-------2---3---5----------------|
B|-0---------------0----------------|-0-----------------------3--------|
G|-0---------------0----------------|-0-----------------------2--------|
D|----------------------------------|----------------------------------|
A|----------------------------------|----------------------------------|
E|-3--------------------------------|-3---------------2----------------|

e|-3--------------------------------|-----------------------------------||
B|-3--------------------------------|-----------------4----------------*||
G|-0--------------------------------|-----------------4-----------------||
D|-----------------0----------------|-----------------------------------||
A|---------3---------------3--------|-----------------2----------------*||
E|-3--------------------------------|-3---------------------------------||

        
Comments

No comments yet