Gametabs
Home
Tabs
Random

Winter Theme

Average rating: 5.000

3 ratings

Composer:

Tabber:

Style:

Instrument:

Created: September 30, 2007 at 12:00 AM

            Harvest Moon 64
Winter Theme
Tabbed by Laura

Background guitar plays this
repeatedly throughout the song

e----0-0---0-0---0-0---0-0---0-0---0-0---0-0---0-0--
G---------------------------------------------------
B--2-----1-----0------------------------------------
D--------------------4-----3-----3-----3-----3------
A---------------------------------------------------
E---------------------------------------------------

Main Guitar

e----------------------------3---1---0---1--
G-------------------------------------------
B--2----4-5----7-4----2----0----------------
D-------------------------------------------
A-------------------------------------------
E-------------------------------------------

e----------------------------3---1---5---3--
G-------------------------------------------
B--2----4-5----7-4----2----0----------------
D-------------------------------------------
A-------------------------------------------
E-------------------------------------------

e--8----5----8---10-8-7-5-------------------------
G----------------------------3-5-3-5-3-5-3-1-3-5--
B-------------------------------------------------
D-------------------------------------------------
A-------------------------------------------------
E-------------------------------------------------

e--8----5----8---10-8-7-5--------------------0-5--
G----------------------------3-5-3-5-3-5-3-1------
B-------------------------------------------------
D-------------------------------------------------
A-------------------------------------------------
E-------------------------------------------------

Repeat

        
Comments

@Ria (August 24, 2007 at 10:52 PM)

Great tabs!! :D


@Mareo147 (June 20, 2008 at 3:08 AM)

this is f***ing awsome