Gametabs
Home
Tabs
Random

We Remember

Average rating: 5.000

2 ratings

Composer:

Tabber:

Style:

Instrument:

Created: October 03, 2010 at 12:00 AM

            We Remember
Halo: Reach
Composed by Martin O'Donnell
Tabbed by hslesperance
10/1/10

Thanks to A Dead Fly for figuring out the part from 1:13 to 1:15. Way too difficult for me.


Standard Tuning


Strings

Guitar 3 is the same as guitar 1, but with choir voices instead of strings.

   Guitar 1
|e------------8----------------------------------------------9--------9---|
|B---8-----------------8------------------11--------9---------------------|
|G------------------------------10----------------------------------------|
|D------------------------------------------------------------------------|
|A------------------------------------------------------------------------|
|E------------------------------------------------------------------------|
|  Guitar 2                                                               |
|e------------------------------------------------------------------------|
|B------------------------------------------------------------------------|
|G------------1----------------------------------------------3--------1---|
|D---3--------------------------1---------3---------4---------------------|
|A---------------------4--------------------------------------------------|
|E------------------------------------------------------------------------|
|  Guitar 3                                                               |
|e-----------------------------------------------------------9--------9---|
|B------------------------------------------------------------------------|
|G------------------------------------------------------------------------|
|D------------------------------------------------------------------------|
|A------------------------------------------------------------------------|
|E------------------------------------------------------------------------|


|e---8----8---------------------------------------------------------------|
|B-----------------11--------11--------9------------------------11--------|
|G------------------------------------------------------------------------|
|D------------------------------------------------------------------------|
|A------------------------------------------------------------------------|
|E------------------------------------------------------------------------|
|                                                                         |
|e------------------------------------------------------------------------|
|B------------------------------------------------------------------------|
|G------------------------------------------------------------------------|
|D--------4------------------3----------------------------------4---------|
|A------------------------------------------------------------------------|
|E------------------------------------------------------------------------|
|                                                                         |
|e---8----8---------------------------------------------------------------|
|B-----------------11--------11--------9------------------------11--------|
|G------------------------------------------------------------------------|
|D------------------------------------------------------------------------|
|A------------------------------------------------------------------------|
|E------------------------------------------------------------------------|


Bitchin' Guitar Solo

e------------------------------------------------------------------------
B----------------13------------------------------------------------------
G---11/12------------------11/12--------12h13p12-----------13/15---------
D------------------------------------------------15----------------------
A------------------------------------------------------------------------
E------------------------------------------------------------------------

e------------------------------------------------------------------------
B-------------14--------13/14----13----12/13-------\11-------------------
G---13--------------------------------------------------------13/15------
D------------------------------------------------------------------------
A------------------------------------------------------------------------
E------------------------------------------------------------------------

e------------------------------------------------------------------------
B------------------------------------------------------------------------
G---13----13----12b13~---------------13/15~----------15-14b15------11/12-
D------------------------------------------------------------------------
A------------------------------------------------------------------------
E------------------------------------------------------------------------

e-------------13----13-----13--15--16--18----16--15--16----15h16p15-13---
B---13-----------16------------------------------------------------------
G------------------------------------------------------------------------
D------------------------------------------------------------------------
A------------------------------------------------------------------------
E------------------------------------------------------------------------

e---13----14------14----13--14--16--------16------16-------------14---13-
B-----------------------------------13--------13-----14------16----------
G------------------------------------------------------------------------
D------------------------------------------------------------------------
A------------------------------------------------------------------------
E------------------------------------------------------------------------

1:13
e------------------------------------------------------------------------
B---16-14-12-------------------------------------------------------------
G------------15-13-11----------------------------------------------13-15-
D---------------------13-11--9-------------------15-16-15----15-16-------
A------------------------------11--9-13-14-16-18----------18-------------
E------------------------------------------------------------------------

e------------------14----------------------------------------------------
B------------14----------------------------------------------------------
G------13-15----15-------------------------------------------------------
D---16-------------------------------------------------------------------
A------------------------------------------------------------------------
E------------------------------------------------------------------------


1:16
e---18/19----18----------16--16-------16--16/18----18h19p18-16/18--------
B----------------19--19------------19------------------------------------
G------------------------------------------------------------------------
D------------------------------------------------------------------------
A------------------------------------------------------------------------
E------------------------------------------------------------------------

e---22b23----19----18----18--19-18-----18-18/19--18----18--18~----18-18~-
B---------------------21------------21--------------21-------------------
G------------------------------------------------------------------------
D------------------------------------------------------------------------
A------------------------------------------------------------------------
E------------------------------------------------------------------------

e-------20/21------------------------------------------------------------
B---21-------------------------------------------------------------------
G----------------18--/20----\18/20---------------------------------------
D------------------------------------------------------------------------
A------------------------------------------------------------------------
E------------------------------------------------------------------------


Back to strings

   Guitar 1
|e---11------------------------11----------------------------12--------15-|
|B------------------------------------------------------------------------|
|G------------------------------------------------------------------------|
|D------------------------------------------------------------------------|
|A------------------------------------------------------------------------|
|E------------------------------------------------------------------------|
|  Guitar 2                                                               |
|e--------------------------9---------------------------------------------|
|B---8--------10-------------------------8--------10----------------------|
|G------------------------------------------------------------------------|
|D------------------------------------------------------------------------|
|A------------------------------------------------------------------------|
|E------------------------------------------------------------------------|
|  Guitar 3                                                               |
|e------------------------------------------------------------------------|
|B---------------------------------------------------10-------------------|
|G----------------9-------------------------------------------------------|
|D-----------------------------------------------------11-----------------|
|A------------------------------------------------------------------------|
|E------------------------------------------------------------------------|


|e---L---------------------17---------18----------------L-----------------|
|B------------------------------------------------------------------------|
|G------------------------------------------------------------------------|
|D------------------------------------------------------------------------|
|A------------------------------------------------------------------------|
|E------------------------------------------------------------------------|
|                                                                         |
|e-----------------------------12-----------------------11----------------|
|B---11--------10---------------------------------------------------------|
|G------------------------------------------------------------------------|
|D------------------------------------------------------------------------|
|A------------------------------------------------------------------------|
|E------------------------------------------------------------------------|
|                                                                         |
|e------------------------------------------------------------------------|
|B----------------10------------------------------------------------------|
|G------------------------------------------------------------------------|
|D-------------------11---------------------------------------------------|
|A------------------------------------------------------10----------------|
|E------------------------------------------------------------------------|

h - hammer on
p - pull off
/ - slide up
\ - slide down
b - bend
~ - vibrato
L - tied note

        
Comments

@Ranulf (October 04, 2010 at 4:27 AM)

You're a beast, Hsl.