Gametabs
Home
Tabs
Random

Shinjirareba Koso

Average rating: 5.000

1 ratings

Composer:

Tabber:

Style:

Instrument:

Created: September 29, 2007 at 12:00 AM

            e ---------13--13--12--13--15--13--12--13-----------------
b --13------------------------------------------------15--
g --------------------------------------------------------
d --------------------------------------------------------
a --------------------------------------------------------
e --------------------------------------------------------

e --13--15--17--13--15--17--15--17--20-------------------------------------
b -----------------------------------------------------17--18--15----------
g ---------------------------------------------------------------------15--
d -------------------------------------------------------------------------
a -------------------------------------------------------------------------
e -------------------------------------------------------------------------

e ------1--1--0--1--3--1--0--1-----------
b --1--------------------------------3---
g ---------------------------------------
d ---------------------------------------
a ---------------------------------------
e ---------------------------------------

e --1--3--5--1--3--5--3--5--8-------------------
b -------------------------------------5--6--3--
g ----------------------------------------------
d ----------------------------------------------
a ----------------------------------------------
e ----------------------------------------------

e --13--12--10--8--6--8---------
b ------------------------------
g ------------------------------
d ------------------------------
a ------------------------------
e ------------------------------

e --10--8--6--5------------
b -------------------8--6--
g -------------------------
d -------------------------
a -------------------------
e -------------------------

e --13--12--10--8--6--8--
b -----------------------
g -----------------------
d -----------------------
a -----------------------
e -----------------------

e --10--8--6--5---------------
b -------------------8--7--6--
g ----------------------------
d ----------------------------
a ----------------------------
e ----------------------------

        
Comments

No comments yet