Gametabs
Home
Tabs
Random

Kira, Sono Mezame to Ketsui

Average rating: 4.000

1 ratings

Composer:

Tabber:

Style:

Instrument:

Created: April 06, 2010 at 12:00 AM

            Kira, sono mezame to ketsui
Mobile Suit Gundam SEED
Composed by: Sahashi Toshihiko

Arrangement by: Kaminasora
Note - Try to keep the notes ringing for as long as you can, it's a slow piece,

    ^                    ^                   
    H     E E H  Q W     H     E E H  Q  E W     H E E E  E E H E E E  Q  E E E E  E E E E H  E E E.E E E  E E E.E E E 
e|--------------------|------------------1-0--|---------------------------1-0------3-1-0---0----------------------------|
B|--1--L--0-1-3-------|--1--L--0-1-3----------|--1-----1--0-1-3-----3---------3-1--------3----3-5-6-----6--5-6-8-----8--|
G|--2--L---------0-0--|--2--L---------0----0--|------2------------0----0----0------2-------0----------5------------7----|
D|--2--L--------------|--2--L-----------------|----2------------0-----------------------------------3------------5------|
A|--0--L--------------|--0--L-----------------|-------------------------------------------------------------------------|
E|--------------------|-----------------------|-------------------------------------------------------------------------|

    Q   Q   E  E  E  W      Q   Q   E  E  E  W     Q Q Q W   
e|----------------------|-----------------------|--5-3------|
B|----------------------|-----------11-10-8-10--|------6-8--|
G|----------12-10-9-----|-----------------------|-----------|
D|------12----------10--|-------12--------------|-----------|
A|--10------------------|---10------------------|-----------|
E|----------------------|-----------------------|-----------|

Duration Legend
---------------
W - whole
H - half
Q - quarter
E - 8th




        
Comments

No comments yet