Gametabs
Home
Tabs
Random

March of the Wicked King

Average rating: 5.000

2 ratings

Composer:

Tabber:

Style:

Instrument:

Created: July 15, 2008 at 12:00 AM

            The March of the Wicked King
Guilty Gear X2
Composed by Koi-Ichi Seyama
 (archard)
7/15/08


I didn't complete the entire thing, sorry. But I did get the main parts.
Maybe someone else can help fill in the rest.


e----------------------------------------------
B------------------------2---------------------
G--------------------2-4-----------------------
D--4-2-4-2-4--2-4--2-----------4-2-4-2-4--2-4--
A----------------------------------------------
E----------------------------------------------


e----------------------------------------------2-0----------
B------------------------2-------------------------2-0------
G--------------------2-4-------------------------------2----
D--4-2-4-2-4--2-4--2-----------4-2-4-2-4--2-4------------4--
A-----------------------------------------------------------
E-----------------------------------------------------------


e-------------------------------------------------
B------------------------2------------------------
G--------------------2-4--------------------------
D--4-2-4-2-4--2-4--2-----------4-2-4-2-4--2-4--4--
A----------------------------------------------4--
E----------------------------------------------2--


e---------------------------
B---------------------------
G---------------------------
D---------------------------
A--------------------0-2-4--
E--2-0-2-0-2--0-2--0-------- x3


e---------------------------
B---------------------------
G---------------------------
D------------------------4--
A--------------------0-2----
E--2-0-2-0-2--0-2--0--------


e-----------------------
B-----------------------
G-----------------------
D-----------------------
A-----------------------
E--2-0-2-0-2--0-2--0-2-- x3


e---------------------------
B---------------------------
G---------------------------
D---------------------------
A--------------------0-2-4--
E--2-0-2-0-2--0-2--0--------


e--------------------------------
B--------------------------------
G--4----------4-x-4-x-4-x-4-x-2--
D--4----------4-x-4-x-4-x-4-x-2--
A--2----------2-x-2-x-2-x-2-x-0--
E--------------------------------

                                    This part plays on another guitar around here
e-------------------------          e--9-7----9-7----7----------------14--14--
B-------------------------          B------10-----10----7---------------------
G-------------------------          G-----------------------------------------
D--4--4-4-4-x-x-x-4--4-2--          D-----------------------------------------
A--4--4-4-4-x-x-x-4--4-2--          A-----------------------------------------
E--2--2-2-2-x-x-x-2--2-0-- x2       E-----------------------------------------


e-----------------------------------
B-----------------------------------
G--4----------4-x-4-x-4-x-4-x-2--4--
D--4----------4-x-4-x-4-x-4-x-2--2--
A--2----------2-x-2-x-2-x-2-x-0--2--
E-----------------------------------


Hold the last note then go into


e-------------------------------------------------------
B-------------------------------------------------------
G-------------------------------------------------------
D----------------------4--2-0---------------------------
A-------0--0-2--2-4--4--------4--4-2--2-0--0------------
E--2--2--------------------------------------2--2-0--2-- x4


e-----
B-----
G-----
D--4--
A--4--
E--2-- Hold for a while


The rest of the song is mainly a repeat from the intro. 
I can't really figure out the rest.

        
Comments

@MetalMario702 (September 11, 2008 at 8:28 PM)

damn, you did a good job. thanks for the tab =)