Gametabs
Home
Tabs
Random

The Irony of Chaste

Average rating: 5.000

3 ratings

Composer:

Tabber:

Style:

Instrument:

Created: January 01, 2009 at 12:00 AM

              The Irony of Chaste                               


                                                                           A.S.H
Rythm



     W                                       S S E  S S E  S S E  S S E   
E||-------------------|-------------------|------------------------------|
B||-------------------|-------------------|------------------------------|
G||-------------------|-------------------|------------------------------|
D||--1----------------|-------------------|--1-1----1-1----1-1----1-1----|
A||--1----------------|-------------------|--1-1----1-1----1-1----1-1----|
E||-------------------|-------------------|------------------------------|


  S S E  S S E  S S E    E   E     E  E  S S S S S E  S S S  S   S   
--------------------------------|-----------------------------------|
--------------------------------|-----------------------------------|
--------------------------------|--8--8--8-8---8---8--8-8-8-(8)-(8)-|
--1-1----1-1----1-1-0s--14s--0--|--8--8--8-8---8---8--8-8-8-(8)-(8)-|
--1-1----1-1----1-1-0s--14s--0--|--6--6--6-6---6---6--6-6-6-(6)-(6)-|
--------------------0s--12s--0--|-----------------------------------|


  E  E  S S S E  E  S E   E     H        H         
-----------------------------|--------------------|
-----------------------------|--------------------|
-----8--8-8---8--8--8-8S--6--|--4--------3--------|
-----8--8-8---8--8--8-8S--6--|--4--------3--------|
-----6--6-6---6--6--6-6S--4--|--2--------1--------|
-----------------------------|--------------------|


  S S S S S S S S S S S S S S S S    E  E  S S S S S E  S S S  S   S   
----------------------------------|-----------------------------------|
----------------------------------|-----------------------------------|
----------------------------------|--8--8--8-8---8---8--8-8-8-(8)-(8)-|
--1-1-1---1-1---1---------6-------|--8--8--8-8---8---8--8-8-8-(8)-(8)-|
--1-1-1---1-1---1---6-8-9---9-8-9-|--6--6--6-6---6---6--6-6-6-(6)-(6)-|
----------------------------------|-----------------------------------|


  E  E  S S S E  E  S E   E     H        H         
-----------------------------|--------------------|
-----------------------------|--------------------|
-----8--8-8---8--8--8-8S--6--|--4--------3--------|
-----8--8-8---8--8--8-8S--6--|--4--------3--------|
-----6--6-6---6--6--6-6S--4--|--2--------1--------|
-----------------------------|--------------------|


  S S S S S S S S S S S S S S S S    W                   H        Q     E   E   
----------------------------------|-------------------|------------------------|
----------------------------------|-------------------|------------------------|
----------------------------------|-------------------|------------------------|
--1-1-1---1-1---1---------6-------|--1----------------|----------------14s--0--|
--1-1-1---1-1---1---6-8-9---9-8-9-|--1----------------|----------------14s--0--|
----------------------------------|-------------------|----------------12s--0--|


  S S S S S S S S S S S S S S S S     S  S  S  S  S  S  S  S S S S S S S S S  
----------------------------------|------------------------------------------|
----------------------------------|------------------------------------------|
--8-8-8-8-8-8-8-8-----------------|------------------------------------------|
--8-8-8-8-8-8-8-8-9-9-9-9-9-9-9-9-|--11-11-11-11-11-11-11-11-9-9-9-9-9-9-9-9-|
--6-6-6-6-6-6-6-6-9-9-9-9-9-9-9-9-|--11-11-11-11-11-11-11-11-9-9-9-9-9-9-9-9-|
------------------7-7-7-7-7-7-7-7-|---9--9--9--9--9--9--9--9-7-7-7-7-7-7-7-7-|


   Q     Q    H                       S S S S S S S S S S S S S S S S  
-----------------------|-----------|----------------------------------|
-----------------------|-----------|----------------------------------|
-----------------------|-----------|--8-8-8-8-8-8-8-8-----------------|
--14s----0-------------|-----------|--8-8-8-8-8-8-8-8-9-9-9-9-9-9-9-9-|
--14s----0-------------|-----------|--6-6-6-6-6-6-6-6-9-9-9-9-9-9-9-9-|
--12s----0-------------|-----------|------------------7-7-7-7-7-7-7-7-|


   S  S  S  S  S  S  S  S S S S S S S S S    E  S S S S S S S S S S S S S S  
------------------------------------------|---------------------------------|
------------------------------------------|---------------------------------|
------------------------------------------|-----------------8-8-8-8-8-8-8-8-|
--11-11-11-11-11-11-11-11-9-9-9-9-9-9-9-9-|--9--9-9-9-9-9-9-8-8-8-8-8-8-8-8-|
--11-11-11-11-11-11-11-11-9-9-9-9-9-9-9-9-|--9--9-9-9-9-9-9-6-6-6-6-6-6-6-6-|
---9--9--9--9--9--9--9--9-7-7-7-7-7-7-7-7-|--7--7-7-7-7-7-7-----------------|


  S S S S S S S S H           H        H         
---------------------------|--------------------|
---------------------------|--------------------|
----------7-7-7-7-8--------|--------------------|
--8-8-8-8-7-7-7-7-8--------|--9--------8--------|
--8-8-8-8-5-5-5-5-6--------|--9--------8--------|
--6-6-6-6------------------|--7--------6--------|


  E   S   S   E    S    S   H         
-------------------------------------|
-------------------------------------|
--8--(8)-(8)-10--(10)-(10)-11--------|
--8--(8)-(6)-10--(10)-(10)-11--------|
--6--(6)-(6)--8---(8)--(8)--9--------|
-------------------------------------|


  E   S   S   S   S   S   S  E   S   S   S   S   S   S   
--------------------------------------------------------|
--------------------------------------------------------|
--------------------------------------------------------|
--9--(9)-(9)-(9)-(9)-(9)-(9)-8--(8)-(8)-(8)-(8)-(8)-(8)-|
--9--(9)-(9)-(9)-(9)-(9)-(9)-8--(8)-(8)-(8)-(8)-(8)-(8)-|
--7--(7)-(7)-(7)-(7)-(7)-(7)-6--(6)-(6)-(6)-(6)-(6)-(6)-|


  E   S   S   S   S   S   S  H           H        H         
--------------------------------------|--------------------|
--------------------------------------|--------------------|
--8--(8)-(8)-(8)-(8)-(8)-(8)----------|--------------------|
--8--(8)-(8)-(8)-(8)-(8)-(8)-8--------|--9--------8--------|
--6--(6)-(6)-(6)-(6)-(6)-(6)-8--------|--9--------8--------|
-----------------------------6--------|--7--------6--------|


  E   S   S   E    S    S   E    S    S   E    S    S   
-------------------------------------------------------|
-------------------------------------------------------|
--8--(8)-(8)-10--(10)-(10)-11--(11)-(11)-13--(13)-(13)-|
--8--(8)-(6)-10--(10)-(10)-11--(11)-(11)-13--(13)-(13)-|
--6--(6)-(6)--8---(8)--(8)--9---(9)--(9)-11--(11)-(11)-|
-------------------------------------------------------|


  E   S   S   S   E   E.   S   S   S   E   S  
---------------------------------------------|
---------------------------------------------|
--8--(8)-(8)-(8)-(8)-------------------------|
--8--(8)-(8)-(8)-(8)--9---(9)-(9)-(9)-(9)--6-|
--6--(6)-(6)-(6)-(6)--9---(9)-(9)-(9)-(9)--6-|
----------------------7----7---7---7---7---4-|


  E   S   S   S   E   E.   S   S   S   E   S  
---------------------------------------------|
---------------------------------------------|
---------------------------------------------|
-----(6)-(6)-(6)-(6)--8---(8)-(8)-(8)-(8)----|
-----(6)-(6)-(6)-(6)--8---(8)-(8)-(8)-(8)----|
-----(4)-(4)-(4)-(4)--6---(6)-(6)-(6)-(6)----|


  E   S   S   S   S   S   S   S   S   S   S   S   S   S   S   
-------------------------------------------------------------|
-------------------------------------------------------------|
-------------------------------------------------------------|
--9--(9)-(9)-(9)-(9)-(9)-(9)-(9)-(9)-(9)-(9)-(9)-(9)-(9)-(9)-|
--9--(9)-(9)-(9)-(9)-(9)-(9)-(9)-(9)-(9)-(9)-(9)-(9)-(9)-(9)-|
--7--(7)-(7)-(7)-(7)-(7)-(7)-(7)-(7)-(7)-(7)-(7)-(7)-(7)-(7)-|


   E    S    S    S    S    S    H         S  
---------------------------------------------|
---------------------------------------------|
--11--(11)-(11)-(11)-(11)-(13)-(10)----------|
--11--(11)-(11)-(11)-(11)-(13)-(10)----------|
---9---(9)--(9)--(9)--(9)-(11)--(8)----------|
---------------------------------------------|


  E   S   S   S   S   S   S  E   S   S   S   S   S   S   
--------------------------------------------------------|
--------------------------------------------------------|
--8--(8)-(8)-(8)-(8)-(8)-(8)----------------------------|
--8--(8)-(8)-(8)-(8)-(8)-(8)-9--(9)-(9)-(9)-(9)-(9)-(9)-|
--6--(6)-(6)-(6)-(6)-(6)-(6)-9--(9)-(9)-(9)-(9)-(9)-(9)-|
-----------------------------7--(7)-(7)-(7)-(7)-(7)-(7)-|


   E    S    S    S    S    S    S  E   S   S   S   S   S   S   
---------------------------------------------------------------|
---------------------------------------------------------------|
---------------------------------------------------------------|
--11--(11)-(11)-(11)-(11)-(11)-(11)-8--(8)-(8)-(8)-(8)-(8)-(8)-|
--11--(11)-(11)-(11)-(11)-(11)-(11)-8--(8)-(8)-(8)-(8)-(8)-(8)-|
---9---(9)--(9)--(9)--(9)--(9)--(9)-6--(6)-(6)-(6)-(6)-(6)-(6)-|


  E   S   S   S   S   S   S   S   S   S   S   S   S   S   S   
-------------------------------------------------------------|
-------------------------------------------------------------|
-------------------------------------------------------------|
--8--(8)-(8)-(8)-(8)-(8)-(8)-(8)-(8)-(8)-(8)-(8)-(8)-(8)-(8)-|
--8--(8)-(8)-(8)-(8)-(8)-(8)-(8)-(8)-(8)-(8)-(8)-(8)-(8)-(8)-|
--6--(6)-(6)-(6)-(6)-(6)-(6)-(6)-(6)-(6)-(6)-(6)-(6)-(6)-(6)-|


  E   S   S   S   S   S   S   E    S    S    S    S    S    S   
---------------------------------------------------------------|
---------------------------------------------------------------|
---------------------------------------------------------------|
--9--(9)-(9)-(9)-(9)-(9)-(9)-11--(11)-(11)-(11)-(11)-(11)-(11)-|
--9--(9)-(9)-(9)-(9)-(9)-(9)-11--(11)-(11)-(11)-(11)-(11)-(11)-|
--7--(7)-(7)-(7)-(7)-(7)-(7)--9---(9)--(9)--(9)--(9)--(9)--(9)-|


  E   S   S   S   E   E.   S   S   S   E   S  
---------------------------------------------|
---------------------------------------------|
--8--(8)-(8)-(8)-(8)-------------------------|
--8--(8)-(8)-(8)-(8)--9---(9)-(9)-(9)-(9)--6-|
--6--(6)-(6)-(6)-(6)--9---(9)-(9)-(9)-(9)--6-|
----------------------7----7---7---7---7---4-|


  E   S   S   S   E   E.   S   S   S   E   S  
---------------------------------------------|
---------------------------------------------|
---------------------------------------------|
-----(6)-(6)-(6)-(6)--8---(8)-(8)-(8)-(8)----|
-----(6)-(6)-(6)-(6)--8---(8)-(8)-(8)-(8)----|
-----(4)-(4)-(4)-(4)--6---(6)-(6)-(6)-(6)----|


  E   S   S   S   S   S   S   S   S   S   S   S   S   S   S   
-------------------------------------------------------------|
-------------------------------------------------------------|
-------------------------------------------------------------|
--9--(9)-(9)-(9)-(9)-(9)-(9)-(9)-(9)-(9)-(9)-(9)-(9)-(9)-(9)-|
--9--(9)-(9)-(9)-(9)-(9)-(9)-(9)-(9)-(9)-(9)-(9)-(9)-(9)-(9)-|
--7--(7)-(7)-(7)-(7)-(7)-(7)-(7)-(7)-(7)-(7)-(7)-(7)-(7)-(7)-|


   E    S    S    S    S    S    H         S  
---------------------------------------------|
---------------------------------------------|
--11--(11)-(11)-(11)-(11)-(13)-(10)----------|
--11--(11)-(11)-(11)-(11)-(13)-(10)----------|
---9---(9)--(9)--(9)--(9)-(11)--(8)----------|
---------------------------------------------|


  S S S S S S S S  S  S  S S S S S S    W                 
-------------------------------------|-------------------|
-------------------------------------|-------------------|
---------------------------8-8-8-8-8-|--8----------------|
--8-8-8-9-9-9-9-9-11-11-11-8-8-8-8-8-|--8----------------|
--8-8-8-9-9-9-9-9-11-11-11-6-6-6-6-6-|--6----------------|
--6-6-6-7-7-7-7-7--9--9--9-----------|-------------------|


  H         Q     Q       E  E  S S S S S E  S S S  S   S   
-----------------------|-----------------------------------|
-----------------------|-----------------------------------|
-----------------------|--8--8--8-8---8---8--8-8-8-(8)-(8)-|
-----------14s----0----|--8--8--8-8---8---8--8-8-8-(8)-(8)-|
-----------14s----0----|--6--6--6-6---6---6--6-6-6-(6)-(6)-|
-----------12s----0----|-----------------------------------|


  E  E  S S S E  E  S E   E     H        H         
-----------------------------|--------------------|
-----------------------------|--------------------|
-----8--8-8---8--8--8-8S--6--|--4--------3--------|
-----8--8-8---8--8--8-8S--6--|--4--------3--------|
-----6--6-6---6--6--6-6S--4--|--2--------1--------|
-----------------------------|--------------------|


  S S S S S S S S S S S S S S S S    E  E  S S S S S E  S S S  S   S   
----------------------------------|-----------------------------------|
----------------------------------|-----------------------------------|
----------------------------------|--8--8--8-8---8---8--8-8-8-(8)-(8)-|
--1-1-1---1-1---1---------6-------|--8--8--8-8---8---8--8-8-8-(8)-(8)-|
--1-1-1---1-1---1---6-8-9---9-8-9-|--6--6--6-6---6---6--6-6-6-(6)-(6)-|
----------------------------------|-----------------------------------|


  E  E  S S S E  E  S E   E     H        H         
-----------------------------|--------------------|
-----------------------------|--------------------|
-----8--8-8---8--8--8-8S--6--|--4--------3--------|
-----8--8-8---8--8--8-8S--6--|--4--------3--------|
-----6--6-6---6--6--6-6S--4--|--2--------1--------|
-----------------------------|--------------------|


  S S S S S S S S S S S S S S S S    W                   H        Q     E   E   
----------------------------------|-------------------|------------------------|
----------------------------------|-------------------|------------------------|
----------------------------------|-------------------|------------------------|
--1-1-1---1-1---1---------6-------|--1----------------|----------------14s--0--|
--1-1-1---1-1---1---6-8-9---9-8-9-|--1----------------|----------------14s--0--|
----------------------------------|-------------------|----------------12s--0--|


  S S S S S S S S S S S S S S S S     S  S  S  S  S  S  S  S S S S S S S S S  
----------------------------------|------------------------------------------|
----------------------------------|------------------------------------------|
--8-8-8-8-8-8-8-8-----------------|------------------------------------------|
--8-8-8-8-8-8-8-8-9-9-9-9-9-9-9-9-|--11-11-11-11-11-11-11-11-9-9-9-9-9-9-9-9-|
--6-6-6-6-6-6-6-6-9-9-9-9-9-9-9-9-|--11-11-11-11-11-11-11-11-9-9-9-9-9-9-9-9-|
------------------7-7-7-7-7-7-7-7-|---9--9--9--9--9--9--9--9-7-7-7-7-7-7-7-7-|


   Q     Q    H                       S S S S S S S S S S S S S S S S  
-----------------------|-----------|----------------------------------|
-----------------------|-----------|----------------------------------|
-----------------------|-----------|--8-8-8-8-8-8-8-8-----------------|
--14s----0-------------|-----------|--8-8-8-8-8-8-8-8-9-9-9-9-9-9-9-9-|
--14s----0-------------|-----------|--6-6-6-6-6-6-6-6-9-9-9-9-9-9-9-9-|
--12s----0-------------|-----------|------------------7-7-7-7-7-7-7-7-|


   S  S  S  S  S  S  S  S S S S S S S S S    E  S S S S S S S S S S S S S S  
------------------------------------------|---------------------------------|
------------------------------------------|---------------------------------|
------------------------------------------|-----------------8-8-8-8-8-8-8-8-|
--11-11-11-11-11-11-11-11-9-9-9-9-9-9-9-9-|--9--9-9-9-9-9-9-8-8-8-8-8-8-8-8-|
--11-11-11-11-11-11-11-11-9-9-9-9-9-9-9-9-|--9--9-9-9-9-9-9-6-6-6-6-6-6-6-6-|
---9--9--9--9--9--9--9--9-7-7-7-7-7-7-7-7-|--7--7-7-7-7-7-7-----------------|


  S S S S S S S S H           H        H         
---------------------------|--------------------|
---------------------------|--------------------|
----------7-7-7-7-8--------|--------------------|
--8-8-8-8-7-7-7-7-8--------|--9--------8--------|
--8-8-8-8-5-5-5-5-6--------|--9--------8--------|
--6-6-6-6------------------|--7--------6--------|


  E   S   S   E    S    S   H         
-------------------------------------|
-------------------------------------|
--8--(8)-(8)-10--(10)-(10)-11--------|
--8--(8)-(6)-10--(10)-(10)-11--------|
--6--(6)-(6)--8---(8)--(8)--9--------|
-------------------------------------|


  E   S   S   S   S   S   S  E   S   S   S   S   S   S   
--------------------------------------------------------|
--------------------------------------------------------|
--------------------------------------------------------|
--9--(9)-(9)-(9)-(9)-(9)-(9)-8--(8)-(8)-(8)-(8)-(8)-(8)-|
--9--(9)-(9)-(9)-(9)-(9)-(9)-8--(8)-(8)-(8)-(8)-(8)-(8)-|
--7--(7)-(7)-(7)-(7)-(7)-(7)-6--(6)-(6)-(6)-(6)-(6)-(6)-|


  E   S   S   S   S   S   S  H           H        H         
--------------------------------------|--------------------|
--------------------------------------|--------------------|
--8--(8)-(8)-(8)-(8)-(8)-(8)----------|--------------------|
--8--(8)-(8)-(8)-(8)-(8)-(8)-8--------|--9--------8--------|
--6--(6)-(6)-(6)-(6)-(6)-(6)-8--------|--9--------8--------|
-----------------------------6--------|--7--------6--------|


  E   S   S   E    S    S   E    S    S   E    S    S   
-------------------------------------------------------|
-------------------------------------------------------|
--8--(8)-(8)-10--(10)-(10)-11--(11)-(11)-13--(13)-(13)-|
--8--(8)-(6)-10--(10)-(10)-11--(11)-(11)-13--(13)-(13)-|
--6--(6)-(6)--8---(8)--(8)--9---(9)--(9)-11--(11)-(11)-|
-------------------------------------------------------|


  E   S   S   S   E   E.   S   S   S   E   S  
---------------------------------------------|
---------------------------------------------|
--8--(8)-(8)-(8)-(8)-------------------------|
--8--(8)-(8)-(8)-(8)--9---(9)-(9)-(9)-(9)--6-|
--6--(6)-(6)-(6)-(6)--9---(9)-(9)-(9)-(9)--6-|
----------------------7----7---7---7---7---4-|


  E   S   S   S   E   E.   S   S   S   E   S  
---------------------------------------------|
---------------------------------------------|
---------------------------------------------|
-----(6)-(6)-(6)-(6)--8---(8)-(8)-(8)-(8)----|
-----(6)-(6)-(6)-(6)--8---(8)-(8)-(8)-(8)----|
-----(4)-(4)-(4)-(4)--6---(6)-(6)-(6)-(6)----|


  E   S   S   S   S   S   S   S   S   S   S   S   S   S   S   
-------------------------------------------------------------|
-------------------------------------------------------------|
-------------------------------------------------------------|
--9--(9)-(9)-(9)-(9)-(9)-(9)-(9)-(9)-(9)-(9)-(9)-(9)-(9)-(9)-|
--9--(9)-(9)-(9)-(9)-(9)-(9)-(9)-(9)-(9)-(9)-(9)-(9)-(9)-(9)-|
--7--(7)-(7)-(7)-(7)-(7)-(7)-(7)-(7)-(7)-(7)-(7)-(7)-(7)-(7)-|


   E    S    S    S    S    S    H         S  
---------------------------------------------|
---------------------------------------------|
--11--(11)-(11)-(11)-(11)-(13)-(10)----------|
--11--(11)-(11)-(11)-(11)-(13)-(10)----------|
---9---(9)--(9)--(9)--(9)-(11)--(8)----------|
---------------------------------------------|


  E   S   S   S   S   S   S  E   S   S   S   S   S   S   
--------------------------------------------------------|
--------------------------------------------------------|
--8--(8)-(8)-(8)-(8)-(8)-(8)----------------------------|
--8--(8)-(8)-(8)-(8)-(8)-(8)-9--(9)-(9)-(9)-(9)-(9)-(9)-|
--6--(6)-(6)-(6)-(6)-(6)-(6)-9--(9)-(9)-(9)-(9)-(9)-(9)-|
-----------------------------7--(7)-(7)-(7)-(7)-(7)-(7)-|


   E    S    S    S    S    S    S  E   S   S   S   S   S   S   
---------------------------------------------------------------|
---------------------------------------------------------------|
---------------------------------------------------------------|
--11--(11)-(11)-(11)-(11)-(11)-(11)-8--(8)-(8)-(8)-(8)-(8)-(8)-|
--11--(11)-(11)-(11)-(11)-(11)-(11)-8--(8)-(8)-(8)-(8)-(8)-(8)-|
---9---(9)--(9)--(9)--(9)--(9)--(9)-6--(6)-(6)-(6)-(6)-(6)-(6)-|


  E   S   S   S   S   S   S   S   S   S   S   S   S   S   S   
-------------------------------------------------------------|
-------------------------------------------------------------|
-------------------------------------------------------------|
--8--(8)-(8)-(8)-(8)-(8)-(8)-(8)-(8)-(8)-(8)-(8)-(8)-(8)-(8)-|
--8--(8)-(8)-(8)-(8)-(8)-(8)-(8)-(8)-(8)-(8)-(8)-(8)-(8)-(8)-|
--6--(6)-(6)-(6)-(6)-(6)-(6)-(6)-(6)-(6)-(6)-(6)-(6)-(6)-(6)-|


  E   S   S   S   S   S   S   E    S    S    S    S    S    S   
---------------------------------------------------------------|
---------------------------------------------------------------|
---------------------------------------------------------------|
--9--(9)-(9)-(9)-(9)-(9)-(9)-11--(11)-(11)-(11)-(11)-(11)-(11)-|
--9--(9)-(9)-(9)-(9)-(9)-(9)-11--(11)-(11)-(11)-(11)-(11)-(11)-|
--7--(7)-(7)-(7)-(7)-(7)-(7)--9---(9)--(9)--(9)--(9)--(9)--(9)-|


  E   S   S   S   E   E.   S   S   S   E   S  
---------------------------------------------|
---------------------------------------------|
--8--(8)-(8)-(8)-(8)-------------------------|
--8--(8)-(8)-(8)-(8)--9---(9)-(9)-(9)-(9)--6-|
--6--(6)-(6)-(6)-(6)--9---(9)-(9)-(9)-(9)--6-|
----------------------7----7---7---7---7---4-|


  E   S   S   S   E   E.   S   S   S   E   S  
---------------------------------------------|
---------------------------------------------|
---------------------------------------------|
-----(6)-(6)-(6)-(6)--8---(8)-(8)-(8)-(8)----|
-----(6)-(6)-(6)-(6)--8---(8)-(8)-(8)-(8)----|
-----(4)-(4)-(4)-(4)--6---(6)-(6)-(6)-(6)----|


  E   S   S   S   S   S   S   S   S   S   S   S   S   S   S   
-------------------------------------------------------------|
-------------------------------------------------------------|
-------------------------------------------------------------|
--9--(9)-(9)-(9)-(9)-(9)-(9)-(9)-(9)-(9)-(9)-(9)-(9)-(9)-(9)-|
--9--(9)-(9)-(9)-(9)-(9)-(9)-(9)-(9)-(9)-(9)-(9)-(9)-(9)-(9)-|
--7--(7)-(7)-(7)-(7)-(7)-(7)-(7)-(7)-(7)-(7)-(7)-(7)-(7)-(7)-|


   E    S    S    S    S    S    H         S  
---------------------------------------------|
---------------------------------------------|
--11--(11)-(11)-(11)-(11)-(13)-(10)----------|
--11--(11)-(11)-(11)-(11)-(13)-(10)----------|
---9---(9)--(9)--(9)--(9)-(11)--(8)----------|
---------------------------------------------|


  S S S S S S S S  S  S  S S S S S S    W                 
-------------------------------------|-------------------|
-------------------------------------|-------------------|
---------------------------8-8-8-8-8-|--8----------------|
--8-8-8-9-9-9-9-9-11-11-11-8-8-8-8-8-|--8----------------|
--8-8-8-9-9-9-9-9-11-11-11-6-6-6-6-6-|--6----------------|
--6-6-6-7-7-7-7-7--9--9--9-----------|-------------------|


  H         Q     Q       W                  
-----------------------|-------------------||
-----------------------|-------------------||
-----------------------|-------------------||
-----------14s----0----|--1----------------||
-----------14s----0----|--1----------------||
-----------12s----0----|-------------------||



  The Irony of Chaste                               


                                                                           A.S.H
Lead



E||-------|-------|-------|-------|-------|-------|-------|-------|-------|
B||-------|-------|-------|-------|-------|-------|-------|-------|-------|
G||-------|-------|-------|-------|-------|-------|-------|-------|-------|
D||-------|-------|-------|-------|-------|-------|-------|-------|-------|
A||-------|-------|-------|-------|-------|-------|-------|-------|-------|
E||-------|-------|-------|-------|-------|-------|-------|-------|-------|


                           S S  S  S S S  S  E  S S  S  S  S S  S  
-------|-------|-------|------------------------------------------|
-------|-------|-------|--11---------9------------9------------11-|
-------|-------|-------|-----8-10-11---8-10-11--8---11-10-11------|
-------|-------|-------|-------------------------------------9----|
-------|-------|-------|------------------------------------------|
-------|-------|-------|------------------------------------------|


          W                                                  
  S  S  S H        S   E  E      E.   E.   E   E.   E.   E   
-----------------------------|-------11---13--14---13-------|
--9-----------------------9--|--11----------------------16--|
----11-10-8----------/11-----|------------------------------|
-----------------------------|------------------------------|
-----------------------------|------------------------------|
-----------------------------|------------------------------|


   E.   E.   E   E.   T   T  E  E      S  S  S  E   S  S  E   E.   S  S  S  S  
--16---14--------------------------|------------------------------------------|
------------14--12---14p-12--------|---------------------14--12---------------|
----------------------------15-----|-----------13-----------------15-13----13-|
-----------------------------------|--13-15-16-----16-15----------------16----|
-----------------------------------|------------------------------------------|
-----------------------------------|------------------------------------------|


             W                                             
   S  S  E   H.                E.   E.   E   E.   E.   E   
--------------------------|--------11---13--14---13---14--|
--------------------------|--/11--------------------------|
--11-10-------------------|-------------------------------|
--------13--15------------|-------------------------------|
--------------------------|-------------------------------|
--------------------------|-------------------------------|


   E.   E.   E   E.   E  E.      Q.       E    Q.     E   
--16---14---16--19---18------|--18b------18b--18---------|
-----------------------------|---------------------------|
-----------------------------|---------------------------|
-----------------------------|---------------------------|
-----------------------------|---------------------------|
-----------------------------|---------------------------|


   E   E   E   E   H            Q     Q     Q     E  E   
----------18-----------------|--------------------------|
--19--18---------------------|--------------------------|
--------------19--20~--------|-------------11----10-----|
-----------------------------|-------/8-----------------|
-----------------------------|--------------------------|
-----------------------------|--------------------------|


  E  E  E   E   H              Q.      S  S  H          
--------------------------|----------------------------|
--------------------------|--/16------15-16-18~--------|
--8--7--8--10--11~--------|----------------------------|
--------------------------|----------------------------|
--------------------------|----------------------------|
--------------------------|----------------------------|


   Q       E   E   H            Q     Q     Q     E  E   
-----------------------------|--------------------------|
--16br----18--19--18~--------|--------------------------|
-----------------------------|-------------11----10-----|
-----------------------------|-------/8-----------------|
-----------------------------|--------------------------|
-----------------------------|--------------------------|


  E  E  E   E   E  E   E   E       E   S  S  S  E.    E   E   S  S  S  S  
------------------------------|------------------------------------------|
-------------------9--12--11--|-------16-18-19------/21--19--18----------|
--8--7--8--10--11-------------|--/15-----------15---------------20-18-20-|
------------------------------|------------------------------------------|
------------------------------|------------------------------------------|
------------------------------|------------------------------------------|


    E   S  S  S  E.    E   E   S  S  S  S  
------------------------------------------|
-------16-18-19------/21--19--18----------|
--/15-----------15---------------20-18-20-|
------------------------------------------|
------------------------------------------|
------------------------------------------|


  E   E   S  S  S  E   E.   S  S  S  S    Q.      S  Q    S E  E   
---------------------------------13-14-|---------16-13------------|
---------------14-16--14---14-16-------|--------------------------|
-----15--15-16-------------------------|--------------------------|
---------------------------------------|--------------------------|
---------------------------------------|--------------------------|
---------------------------------------|--------------------------|


    E   E   E   E   E  E   S  S  S  S     E   E   E  E   E  E   S S  S  S  
--------------------------------------|-----------------------------------|
---------------11--12-----12-11-------|--------------9--11-----11-9-------|
--/11------11-------------------13-11-|--10------10-----------------11-10-|
-------13-----------------------------|------11---------------------------|
--------------------------------------|-----------------------------------|
--------------------------------------|-----------------------------------|


   S  S  S  S  S  S  S  S  S  S  S  S  S  S  S  S  
--------------------------------------------------|
--------------------------------------------------|
--16----------13-------------------------------13-|
-----13-15-16----------13-15----------13-15-16----|
-----------------14-16-------13-14-16-------------|
--------------------------------------------------|


   S  S  S  S  S  S  S  S  S  S  S  S  S  S  S  S  
--------------------------------------16----16-18-|
--------------14----14-16-18-16-18-19----19-------|
--15-13-15-16----16-------------------------------|
--------------------------------------------------|
--------------------------------------------------|
--------------------------------------------------|


    E   S  S  S  E.    E   E   S  S  S  S  
------------------------------------------|
-------16-18-19------/21--19--18----------|
--/15-----------15---------------20-18-20-|
------------------------------------------|
------------------------------------------|
------------------------------------------|


    E   S  S  S  E.    E   E   S  S  S  S  
------------------------------------------|
-------16-18-19------/21--19--18----------|
--/15-----------15---------------20-18-20-|
------------------------------------------|
------------------------------------------|
------------------------------------------|


  E   E   S  S  S  E   E.   S  S  S  S    Q.      S  Q    S E  E   
---------------------------------13-14-|---------16-13------------|
---------------14-16--14---14-16-------|--------------------------|
-----15--15-16-------------------------|--------------------------|
---------------------------------------|--------------------------|
---------------------------------------|--------------------------|
---------------------------------------|--------------------------|


   Q.       H           E      Q     Q     Q     Q     
--19b------19pbr-----------|--------------------------|
---------------------------|--19----18----16----------|
---------------------------|--------------------15----|
---------------------------|--------------------------|
---------------------------|--------------------------|
---------------------------|--------------------------|


   Q.      S  S  H                                                         
--------------------------|-------|-------|-------|-------|-------|-------|
--------------------------|-------|-------|-------|-------|-------|-------|
--16------15-16-15--------|-------|-------|-------|-------|-------|-------|
--------------------------|-------|-------|-------|-------|-------|-------|
--------------------------|-------|-------|-------|-------|-------|-------|
--------------------------|-------|-------|-------|-------|-------|-------|


                   S S  S  S S S  S  E  S S  S  S  S S  S  
-------|-------|------------------------------------------|
-------|-------|--11---------9------------9------------11-|
-------|-------|-----8-10-11---8-10-11--8---11-10-11------|
-------|-------|-------------------------------------9----|
-------|-------|------------------------------------------|
-------|-------|------------------------------------------|


          W                                                  
  S  S  S H        S   E  E      E.   E.   E   E.   E.   E   
-----------------------------|-------11---13--14---13-------|
--9-----------------------9--|--11----------------------16--|
----11-10-8----------/11-----|------------------------------|
-----------------------------|------------------------------|
-----------------------------|------------------------------|
-----------------------------|------------------------------|


   E.   E.   E   E.   T   T  E  E      S  S  S  E   S  S  E   E.   S  S  S  S  
--16---14--------------------------|------------------------------------------|
------------14--12---14p-12--------|---------------------14--12---------------|
----------------------------15-----|-----------13-----------------15-13----13-|
-----------------------------------|--13-15-16-----16-15----------------16----|
-----------------------------------|------------------------------------------|
-----------------------------------|------------------------------------------|


             W                                             
   S  S  E   H.                E.   E.   E   E.   E.   E   
--------------------------|--------11---13--14---13---14--|
--------------------------|--/11--------------------------|
--11-10-------------------|-------------------------------|
--------13--15------------|-------------------------------|
--------------------------|-------------------------------|
--------------------------|-------------------------------|


   E.   E.   E   E.   E  E.      Q.       E    Q.     E   
--16---14---16--19---18------|--18b------18b--18---------|
-----------------------------|---------------------------|
-----------------------------|---------------------------|
-----------------------------|---------------------------|
-----------------------------|---------------------------|
-----------------------------|---------------------------|


   E   E   E   E   H            Q     Q     Q     E  E   
----------18-----------------|--------------------------|
--19--18---------------------|--------------------------|
--------------19--20~--------|-------------11----10-----|
-----------------------------|-------/8-----------------|
-----------------------------|--------------------------|
-----------------------------|--------------------------|


  E  E  E   E   H              Q.      S  S  H          
--------------------------|----------------------------|
--------------------------|--/16------15-16-18~--------|
--8--7--8--10--11~--------|----------------------------|
--------------------------|----------------------------|
--------------------------|----------------------------|
--------------------------|----------------------------|


   Q       E   E   H            Q     Q     Q     E  E   
-----------------------------|--------------------------|
--16br----18--19--18~--------|--------------------------|
-----------------------------|-------------11----10-----|
-----------------------------|-------/8-----------------|
-----------------------------|--------------------------|
-----------------------------|--------------------------|


  E  E  E   E   E  E   E   E       E   S  S  S  E.    E   E   S  S  S  S  
------------------------------|------------------------------------------|
-------------------9--12--11--|-------16-18-19------/21--19--18----------|
--8--7--8--10--11-------------|--/15-----------15---------------20-18-20-|
------------------------------|------------------------------------------|
------------------------------|------------------------------------------|
------------------------------|------------------------------------------|


    E   S  S  S  E.    E   E   S  S  S  S  
------------------------------------------|
-------16-18-19------/21--19--18----------|
--/15-----------15---------------20-18-20-|
------------------------------------------|
------------------------------------------|
------------------------------------------|


  E   E   S  S  S  E   E.   S  S  S  S    Q.      S  Q    S E  E   
---------------------------------13-14-|---------16-13------------|
---------------14-16--14---14-16-------|--------------------------|
-----15--15-16-------------------------|--------------------------|
---------------------------------------|--------------------------|
---------------------------------------|--------------------------|
---------------------------------------|--------------------------|


    E   E   E   E   E  E   S  S  S  S     E   E   E  E   E  E   S S  S  S  
--------------------------------------|-----------------------------------|
---------------11--12-----12-11-------|--------------9--11-----11-9-------|
--/11------11-------------------13-11-|--10------10-----------------11-10-|
-------13-----------------------------|------11---------------------------|
--------------------------------------|-----------------------------------|
--------------------------------------|-----------------------------------|


   S  S  S  S  S  S  S  S  S  S  S  S  S  S  S  S  
--------------------------------------------------|
--------------------------------------------------|
--16----------13-------------------------------13-|
-----13-15-16----------13-15----------13-15-16----|
-----------------14-16-------13-14-16-------------|
--------------------------------------------------|


   S  S  S  S  S  S  S  S  S  S  S  S  S  S  S  S  
--------------------------------------16----16-18-|
--------------14----14-16-18-16-18-19----19-------|
--15-13-15-16----16-------------------------------|
--------------------------------------------------|
--------------------------------------------------|
--------------------------------------------------|


    E   S  S  S  E.    E   E   S  S  S  S  
------------------------------------------|
-------16-18-19------/21--19--18----------|
--/15-----------15---------------20-18-20-|
------------------------------------------|
------------------------------------------|
------------------------------------------|


    E   S  S  S  E.    E   E   S  S  S  S  
------------------------------------------|
-------16-18-19------/21--19--18----------|
--/15-----------15---------------20-18-20-|
------------------------------------------|
------------------------------------------|
------------------------------------------|


  E   E   S  S  S  E   E.   S  S  S  S    Q.      S  Q    S E  E   
---------------------------------13-14-|---------16-13------------|
---------------14-16--14---14-16-------|--------------------------|
-----15--15-16-------------------------|--------------------------|
---------------------------------------|--------------------------|
---------------------------------------|--------------------------|
---------------------------------------|--------------------------|


   Q.       H           E      Q     Q     Q     Q     
--19b------19pbr-----------|--------------------------|
---------------------------|--19----18----16----------|
---------------------------|--------------------15----|
---------------------------|--------------------------|
---------------------------|--------------------------|
---------------------------|--------------------------|


   Q.      S  S  H                      
--------------------------|-----------||
--------------------------|-----------||
--16------15-16-15--------|-----------||
--------------------------|-----------||
--------------------------|-----------||
--------------------------|-----------||




Duration Legend
---------------
W - whole
H - half
Q - quarter
E - 8th
S - 16th
T - 32nd
X - 64th
. - note dotted
|-n-|  - n-tuplets


Tablature Legend
----------------
L - tied note
x - dead note
g - grace note
(n) - ghost note
> - accentuded note
NH - natural harmonic
AH - artificial harmonic
TH - tapped harmonic
SH - semi harmonic
PH - pitch harmonic
h - hammer on
p - pull off
b - bend
br - bendRelease
pb - preBend
pbr - preBendRelease
brb - bendReleaseBend
\n/ - tremolo bar dip
\n - tremolo bar dive
-/n - tremolo bar Release up
/n\ - tremolo bar inverted dip
/n - tremolo bar return
-\n - tremolo bar Release down
S - shift slide
s - legato slide
/ -  slide into from below or out of upwards
\ -  slide into from above or out of downwards
~ - vibrato
W - wide vibrato
tr - trill
TP - tremolo picking
T - tapping
S - slap
P - pop
< - fade in
^ - brush up
v - brush down

        
Comments

@Rick (January 01, 2009 at 8:01 PM)

Did I mention, I love you?

lol great tab, sounds awesome


@Sash (January 02, 2009 at 10:07 AM)

Thank you!!! )


@Kiggz (May 28, 2009 at 5:17 PM)

is this in standard tuning please pm me with the info PLEASE!