Gametabs
Home
Tabs
Random

The Sandy Beach of Gumbo

Average rating: 5.000

4 ratings

Composer:

Tabber:

Style:

Instrument:

Created: May 10, 2014 at 12:00 AM

                               The Sandy Beach of Gumbo  -  Grandia (PlayStation, Saturn)

 Music by Noriyuki Iwadare >> guitar arr. by Diralark

nylon guitar (Capo 2), Dropped D Tuning, let ring, tempo = 63

                                   VII                               -- -]                   
        ^        ^                 ^                                                         
                       |--3--|                  |--3--|  |--3--|                             
     E  E  E  E  E  E  E  E  E     E   E  E  E  E  E  E  E  E  E     E  E  E  E  E  E  Q     
E||-----------0--2--------3--5--|--7------------------------------|-------------------------|
B||--------3-----2-----2--------|--7---------7--8--7--------------|--------------0-----0----|
G||-----2-----------2-----------|--7------------------9--9--7--9--|--7-----0----------------|
D||-----4-----------------------|---------9-----8-----------------|-----------7--------7----|
A||--5-----------4--------------|------9--------------------------|-----9-----9-----9-------|
D||-----------------------------|--9------------------------------|--7-----9----------------|


                    ^                                                             ^                        
  E  E  E  E  E  E  Q         E  E  E  E  E  Q    E     E  E  E  E  Q    E  E     E  E  E  E  E  E  E  E   
--------------------0----||--------------------------|-------------------------|--------------------------|
-----------0--3-----2----||--------------------------|-------------------0--3--|--------------------0--3--|
-----0--2-----0-----2----||*--2----------------------|-------------------------|--2-----------------------|
--------2-----2-----2----||*--------4-----2----------|--0-----4-----2----------|--------4-----2-----------|
-----2-----------0-------||------0-----0----------0--|-----0-----0----------0--|-----0-----0-----------0--|
--2----------------------||---0--------------5-------|--0-----------5----------|--0--------------5--------|


                                                                                  --                       
  ^                                     ^              ^                          ^                        
  E  E  E  E  Q    E  E     E  E  E  E  E  E  E  E     E  E  E  E  E  E  E  E     E  E  E  E  E  E  E  E   
--2-------------------0--|--2--3--3--2--2--0-----0--|--2-----------------2--3--|--------------------2--3--|
-------------------3-----|--------------------3-----|--------------------------|--0-----------------------|
-------------------------|--------------------------|--------------------------|--------0-----------------|
--------4-----2----------|--------0-----------------|--------4-----2-----------|--------2-----4-----------|
-----0-----0----------0--|-----0-----------------0--|-----0-----0-----------0--|-----2-----2-----2--------|
--0-----------5----------|--0-----------5-----------|--0--------------5--------|--2-----------------------|


  --                                                                                                      
              ^                                                                  ^                        
  E  E  E  E  E.  E.   E     E  E  E  E  E  Q    E     E  E  E  E  Q    E  E     E  E  E  E  E  E  E  E   
--0--------------------0--|-------------------------|-------------------------|--------------------------|
-----------3--2---3~------|-------------------------|-------------------0--3--|--------------------0--3--|
--------0-----------------|--2----------------------|-------------------------|--2-----------------------|
--------2-----------------|--------4-----2----------|--0-----4-----2----------|--------4-----2-----------|
-----2--2-----0-----------|-----0-----0----------0--|-----0-----0----------0--|-----0-----0-----------0--|
--2-----------------------|--0--------------5-------|--0-----------5----------|--0--------------5--------|


  ^                                       ^                                         ^                     
  E  E  E  E  Q    E  E     E   E   E  E  E  E  E  E     E  E  E  E  E  E  E  E     H        Q     Q      
--2-------------------0--|--2---3---3--2--2--0-----0--|--7-----------------------|-----------9~----7~----|
-------------------3-----|----------------------3-----|--------------------0-----|-----------------------|
-------------------------|-----(2)--------------------|--------0--------0-----2--|--1--------------------|
--------4-----2----------|----------------------------|-----0--------0-----------|-----------------------|
-----0-----0----------0--|-------------------------0--|-----------2--------------|-----------------------|
--0-----------5----------|--0-------------5-----------|--5-----------------5--4--|--3--------------------|


                            1.___________________                              2.___________________ 
  II       VII                 --  -]                                             --              -]          
  ^            ^                             ^                    ^                              ^         
  E  E  E  E   E  E  E  E      E  E  E  S  S H           H        Q    Q          E  E  E  S  S  H         
--5------------7-----------|--------------------------|----------------0-----||-----------------10--------|
-----------7------------7--|--10--8-----7h-8-0--------|--L--------3----------||--10--8-----7h-8-----------|
---------------------------|-----------------0--------|--L------------------*||---------------------------|
--------4------------7-----|---------0-------0--------|--L--------0---------*||---------9--------8--------|
-----4------------9--------|---7----------------------|----------------------||---7-----------------------|
--4------------9-----------|-----------------9--------|--L--------5----------||---------------------------|


   ^                             ^                                            ^      
                                    |--3--|                                          
   E  E  E  E  E  E  E  E     E  E  E  E  E  E  E  E  E     E  E  E  E  E  E  E  E   
--10--6--------2-----------|-----------------------------|-----------------------0--|
---------8-----------------|-----------------------------|--------------------3-----|
---0--------7--------------|--0-----0--------------------|-----------------2--------|
---------------------0--2--|-----4-----2--0--3--------0--|--------2-----0-----0-----|
------------------0--------|-----5-----------1-----1-----|-----0-----0-----0--------|
---------------0-----4-----|--5-----------------3--------|--5-----------------------|


                 ^                             ^                          ^                              
        |--3--|        |--3--|                                                                           
  E  E  E  E  E  E  E  E  E  E     E  E  E  E  E  E  E  E     E  E  E  E  H           W                  
--3--2-----------5--3-----2--3--|--3-----0-----2-----------|--------------5--------|--L----------------||
-----------5--3-----------------|--------------------------|-----------2--7--------|--L----------------||
--------0-----------------------|--------------2-----------|--2-----2--2-----------|-------------------||
-----0--------------------------|--0--------2--0-----0--4--|-----4--------0--------|--L----------------||
-----------------1-----1--------|-----0-----------0--------|--4--------------------|-------------------||
--0-----------------------------|--5-----------------------|-----------------------|-------------------||

Legend
---------------
W - whole duration 
H - half
Q - quarter
E - 8th
S - 16th
. - note dotted
|-n-|  - n-tuplets
L - tied note
h - hammer on
^ - brush up

ost : https://www.youtube.com/watch?v=2tQP3jmZ3T8#

        
Comments

@Bhael (May 11, 2014 at 10:37 AM)

Nice job man, gametabs needs more Grandia :)


@thedstring (May 18, 2014 at 4:28 AM)

Very nice to play!