Gametabs
Home
Tabs
Random

Goodbye to Sue (Rearranged)

Average rating: 5.000

5 ratings

Composer:

Tabber:

Style:

Instrument:

Created: April 25, 2010 at 12:00 AM

              
                          Goodbye to Sue (Rearranged)                           
                                   Grandia
                               Noriyuki Iwadare

Credit goes to diralark, who decided to make this arrangement more immediately 
accessible, somehow in the click of a button :)
                          

             
                             

     E  S S E  E  S S E     E  E  E  E  E  E     E  S S E  E  S S E   
E||----------------------|-----0--------------|----------------------|
B||--0----1-0--0----1-0--|--0-----0-----------|-------0--------------|
G||----------------------|-----0-----2-----2--|--2------2--0----2-0--|
D||-----2------1--2------|--0-----------2-----|-----2---------0------|
A||--2-------------------|-----------4--------|--3---------2---------|
E||----------------------|--------------------|----------------------|


  E  E  E  E  E  E     E  S S E  E  S S E     E  E  E  E  E  S S  
--------------------|----------------------|-----0---------------|
-----------0--------|--0----1-0--0----1-0--|--0-----0------------|
-----0--2-----------|----------------------|-----0-----2---------|
--4-----2--------1--|-----2------1--2------|--0-----------2--2-4-|
--4-----------3-----|--2-------------------|-----------4---------|
-----------2--------|----------------------|---------------------|


                       ^                ^         ^          
  E  E  E  E  E  E     H        Q       E  S S E  E  S S E   
--------------------|----------------|----------------------|
--------------------|----------------|--0----1-0--0----1-0--|
--0-----------------|----------------|----------------------|
-----4--2--4--2--0--|--2--------1----|--2------2--1--1---1--|
--------2--------0--|--2-------------|--2-------------------|
--0-----------3-----|--0-------------|-----0------0---------|


  ^        ^           ^         ^            ^  ^  ^  ^         
  E  E  E  E  E  E     E  S S E  E  S S E     E  E  E  E  E  E   
-----0--------------|----------------------|--------------------|
--0-----0-----------|-------0--------------|-----------0--------|
-----------2--------|--2------2--0----2-0--|-----0--2-----------|
--0--------2--------|--1------1--0------0--|--4-----2--2-----1--|
--2--------3--4-----|--3--3------2--2------|--0--3--3-----2-----|
--------------------|----------------------|--------------------|


  ^         ^            ^        ^            ^        ^         
  E  S S E  E  S S E     E  E  E  E  E  S S    E  E  E  E  E  E   
----------------------|-----0---------------|--------------------|
--0----1-0--0----1-0--|--0-----0------------|--------------------|
----------------------|-----------2---------|--0-----------------|
--2------2--1--1---1--|--0--------------2-4-|-----4--2--4--2--0--|
--2------2------------|--2--------0---------|--0--------0--------|
-----0------0---------|---------------------|--0-----------------|


  ^           NH     
  H           Q      
-----------<>12----||
-------------------||
-------------------||
--2----------------||
--2----------------||
--0----------------||




Duration Legend
---------------
W - whole
H - half
Q - quarter
E - 8th
S - 16th
T - 32nd
X - 64th
. - note dotted
|-n-|  - n-tuplets


Tablature Legend
----------------
NH - natural harmonic
^ - brush up


        
Comments

@GabrielBocanegra (February 25, 2021 at 10:30 PM)

Imagine two guitars playing each version!!!!!