Gametabs
Home
Tabs
Random

Sandstorm

Average rating: No ratings

Composer:

Tabber:

Style:

Instrument:

Created: May 25, 2012 at 12:00 AM

                                          Gradius III (SNES) - Sand Storm BASS TAB
                                    Songs by Kukeiha Club (KONAMI)

                               Tabbed by auriplane ([email protected])


Four-string bass, standard tuning.

        Part A

G |------------------------|
D |5---5-5-5-5-5-5-5-5-5-5-| x8
A |------------------------|
E |------------------------|


G |--------7-----------7---|
D |5---5-5---5-5---5-5---5-| x8
A |------------------------|
E |------------------------|

        Part B

G |------------------------|------------------------|------------------------|------------------------|
D |--------------------5---|--------------------4---|--------------------2---|------------------------|
A |3---3-3-3-3-3-3-3-3---3-|2---2-2-2-2-2-2-2-2---2-|------------------------|5---5-5-5-5-5-3-2-3-2---|
E |------------------------|------------------------|5---5-5-5-5-5-5-5-5---5-|----------------------5-|


G |------------------------|------------------------|--------------------3---|------------------------|
D |--------------------5---|--------------------4---|1---1-1-1-1-1-1-1-1---1-|3---3-3-3-3-3---3-3-2---|
A |3---3-3-3-3-3-3-3-3---3-|2---2-2-2-2-2-2-2-2---2-|------------------------|----------------------5-|
E |------------------------|------------------------|------------------------|------------------------|


G |------------------------|------------------------|
D |5-------5---3-------3---|2-------2---------------|
A |------------------------|------------5-3-2-------|
E |------3---3-------1---1-|------0---0-------5\----|


G |--------------7-----4-7-|--------------7-------7-|--------------4-------4-|5---5-5-5-5-7---7-7-5-4-|
D |5---5-5-5-5-5---5-5-----|4---4-4-4-4-4---4-4-7---|--------------------5---|------------------------| x2
A |------------------------|------------------------|7---7-7-7-7-7---7-7-----|------------------------|
E |------------------------|------------------------|------------------------|------------------------|



        
Comments

No comments yet