Gametabs
Home
Tabs
Random

Watch Theme

Average rating: 4.833

6 ratings

Composer:

Tabber:

Style:

Instrument:

Created: September 17, 2008 at 12:00 AM

            Game: Goldeneye 64
Song: Watch Theme
Tabbed: September 2nd 2008
Tabber: Scruffy



e--0--2--2--2----0--0--0--0--3--3--3----2--2--2--
B------------------------------------------------
G------------------------------------------------
D------------------------------------------------
A------------------------------------------------
E------------------------------------------------ x2

e--0--2--2--2----0--0--0--0--3--3--3----2--1--0--
B------------------------------------------------
G------------------------------------------------
D------------------------------------------------
A------------------------------------------------
E------------------------------------------------

e--12--10----------------------------------------
B------------12--10--12--------------------------
G------------------------------------------------
D------------------------------------------------
A------------------------------------------------
E------------------------------------------------

        
Comments

@Krimson (September 18, 2008 at 10:46 PM)

lol this one's just fun to play :)


@meh (September 20, 2008 at 6:04 PM)

good tab... but its easier if you start at 9 on the g string :P