Gametabs
Home
Tabs
Random

Silo

Average rating: 2.500

2 ratings

Composer:

Tabber:

Style:

Instrument:

Created: February 02, 2014 at 12:00 AM

            -------------------------------------------------------------------------------
			    Golodeneye-Soviet Missile Silo
-------------------------------------------------------------------------------
Tabbed by:SolidusArmor
E-mail:

Tuning:Standard

Tabbed Completely by ear
e|---------------------------------------------------------------------------|
B|-------15-------15-------15-------15---------------------------------------|
G|---14-------15-------16-------15-------------------------------------------|X2
D|---------------------------------------------------------------------------|
A|---------------------------------------------------------------------------|
E|---------------------------------------------------------------------------|

e|---------------------------------------------------------------------------|
B|---------------------------------------------------------------------------|
G|---------------------------------------------------------------------------|X2
D|---77----777777--88---888888---99---999999---88---888888-------------------|
A|---------------------------------------------------------------------------|
E|---------------------------------------------------------------------------|

e|---------------------------------------------------------------------------|
B|---------------------------------------------------------------------------|
G|--7----33--3h5/7--------33--3h5--------------------------------------------|
D|---------------------------------------------------------------------------|
A|---------------------------------------------------------------------------|
E|---------------------------------------------------------------------------|

e|---------------------------------------------------------------------------|
B|---------------------------------------------------------------------------|
G|---------------------------------------------------------------------------|X2
D|---77----777777--88---888888---99---999999---88---888888-------------------|
A|---------------------------------------------------------------------------|
E|---------------------------------------------------------------------------|


                      Little Background SOLO Opintional 
e|---------------------------------------------------------------------------|
B|---------------------------------------------------------------------------|
G|---------------------------------------------------------------------------|x2
D|---------------------------------------------------------------------------|
A|---//////////////////--17--19--17--17--20--19------------------------------|
E|---------------------------------------------------------------------------|


e|---------------------------------------------------------------------------|
B|---------------------------------------------------------------------------|
G|---------------------------------------------------------------------------|X2
D|---77----777777--88---888888---99---999999---88---888888-------------------|
A|---------------------------------------------------------------------------|
E|---------------------------------------------------------------------------|


e|---------------------------------------------------------------------------|
B|---------------------------------------------------------------------------|
G|--7----33--3h5/7--------33--3h5/7------------------------------------------|
D|---------------------------------------------------------------------------|
A|---------------------------------------------------------------------------|
E|---------------------------------------------------------------------------|


                            Main Solo - Tremolo Picking
e|---------------------------------------------------------------------------|
B|---------------------------------------------------------------------------|
G|--------------18--17----------13----14-------------------------------------|
D|---------15---------------15-----------------------------------------------|
A|---17----------------------------------------------------------------------|
E|---------------------------------------------------------------------------|

e|---------------------------------------------------------------------------|
B|---------------------------------------------------------------------------|
G|---------------------------------------------------------------------------|
D|---15----14--------------17------------------------------------------------|
A|-------------------17----14------------------------------------------------|
E|---------------------------------------------------------------------------|

e|---------------------------------------------------------------------------|
B|---------------------------------------------------------------------------|
G|--------------18--17----------13----14-------------------------------------|
D|---------15---------------15-----------------------------------------------|
A|---17----------------------------------------------------------------------|
E|---------------------------------------------------------------------------|





e|-----------------------
B|-----------------------
G|-----------------------X4
D|----12---10---9---8----
A|----12---10---9---8----
E|----10---8----7---6----


e|---------------------------------------------------------------------------|
B|---------------------------------------------------------------------------|
G|---------------------------------------------------------------------------|
D|-------------------8--7----------------------------------------------------|
A|---1--5--7----8----------------5-------------------------------------------|
E|---------------------------------------------------------------------------|

                       

************************************

| /   slide up
| \   slide down
| h   hammer-on
| p   pull-off
| ~   vibrato
| +   harmonic
| x   Mute note
| b   Bend
| pb  Pre-bend
| br  Bend release
| pbr Pre-bend release
| brb Bend release bend

************************************
        
Comments

No comments yet