Gametabs
Home
Tabs
Random

Sorrow and Regret

Average rating: No ratings

Composer:

Tabber:

Style:

Instrument:

Created: December 25, 2011 at 12:00 AM

            Sorrow and Regret
Golden Sun
Tabbed by flourescentfret

Standard Tuning



Rhythm
e----------------------------------------------
b----------------------------------------------
g---45454-------45454------45454-------45454---
d----------------------------------------------
a-7-----------5----------3-----------2---------
e----------------------------------------------

e----------------------------------------------
b----------------------------------------------
g---45454-------45454------45454-------45459---
d----------------------------------------------
a-7-----------5----------3-----------2---------
e----------------------------------------------

Melody
e----------------------------------------------
b--8--7-5--7-0---8-7-8-10-7--------------------
g----------------------------------------------
d----------------------------------------------
a----------------------------------------------
e----------------------------------------------

e----------------------------------------------
b--8--7-5--7-0---8-7-8-10-12-------------------
g----------------------------------------------
d----------------------------------------------
a----------------------------------------------
e----------------------------------------------


you can somewhat play both at the same time but i recommend learning both parts individually
and then mash them together (getting the counting right would be pretty hard though but doable)

        
Comments

No comments yet