Gametabs
Home
Tabs
Random

A Full Moon In Garoh

Average rating: 5.000

2 ratings

Composer:

Tabber:

Style:

Instrument:

Created: June 07, 2021 at 12:00 AM

            "A Full Moon In Garoh" - Golden Sun: The Lost Age
Composers : Motoi Sakuraba
Arrangement : judgexii
Tuning : Standard EADGBe
BPM : 71 (3/4 time)

   Part 1
   Q    e  e  e   e               e  e  e  e  e  e             e  e  e  e  Q                 e  e  e  e  e  e
e-----------------------------|-----------------------------|-----------------------------|-----------------------------|
B-------------4---------------|---3-----------1-------------|-----------------------------|-----------------------------|
G--0-------0------------------|---------0-----0--3----------|--0--------5-----------------|--0--------5--3--------------|
D-------6-----6---------------|------3-----0-----0----------|--------3-----3--------------|--------3--------------------|
A--3--------------6-----------|---1-------------------------|-----6-----------------------|-----6-----------------------|
E-----------------------------|-----------------------------|--4--------------------------|--4--------------------------|

   Q    e  e  e   e               e  e   e   Q.                e  e  e  e  e  e              e  e  e   e  Q
e-----------------------------|--------------1--------------|-----------------------------|-----------------------------||
B-------------4---------------|---3-------------------------|--1--------1-----------------|--1-----1---3----------------||
G--0-------0------------------|-----------------------------|-----------------------------|-----0---------4-------------||
D-------6-----6---------------|----------0---3--------------|--------1-----3--------------|-----------------------------||
A--3--------------6-----------|------3----------------------|-----3-----------3-----------|--3--------------------------||
E-----------------------------|---1-------------------------|--1--------------------------|------------3----------------|| x2

   Part 2
   e  e  e  e  e  e              e  e  e  e  e  e              e  e  e  e  e  e              e  e  e  e  e  e
e-----------------------------|--------1--1-----------------|-----------------------------|-----------------------------|
B--------------1--3-----------|--4--------3-----------------|--------------1--3-----------|--4--------3-----------------|
G--5--------3--1--3-----------|-----0--3-----3--------------|--5--------3--1--3-----------|-----0-----3-----------------|
D--------6--1-----------------|-----------------3-----------|--------6--1-----------------|--------3--------------------|
A-----6-----------------------|-----------------------------|-----6-----------------------|-----------1-----------------|
E--4--------------------------|--3--------------------------|--4--------------------------|--3-----------1--3-----------|

   e  e  e  e  e  e              e  e  e  e  e  e              e  e  e  e  e  e              e  e  e  e  e  e
e-----------------------------|--------1--1-----------------|-----------------------------|-----------------3-----------|
B--------------1--3-----------|--4--------3-----------------|-----------1--3--4-----------|--3-----------3--------------|
G--5--------3--1--3-----------|-----0--3-----3--------------|--5--------1--3--------------|-----------5-----------------|
D--------6--1-----------------|-----------------3-----------|--------6--------------------|--------5--------------------|
A-----6-----------------------|-----------------------------|-----6-----------------------|-----5-----------------------|
E--4--------------------------|--3--------------------------|--4--------------------------|--3--------------------------|

   e  e  e  e  e  e 
e-----------------3-----------||
B--------------3--------------||
G--4--------5-----------------||
D--------5--5-----------------||
A-----5-----------------------||
E--3--------------------------|| Back to Part 1



Note Legend
-----------
w - whole
h - half
q - quarter
e - eighth
. - dotted

Tab Legend
-----------
() - continue holding note
h - hammer on
p - pull off
/ - slide up
\ - slide down
<> - natural harmonic
^ - brush up
        
Comments

No comments yet