Gametabs
Home
Tabs
Random

Yakitori

Average rating: No ratings

Composer:

Tabber:

Style:

Instrument:

Created: April 03, 2019 at 12:00 AM

            Yakitori
Ghost in the Shell: Standalone Complex
Yoko Kanno
tabbed by corntastic
02 04 2019


e|--------3--------------3--------------3--/------------------------------------------
B|--------3--------------3--------------3--/--3---------------------------------------
G|-----------------------------------------/--4---------------------------------------
D|--2--2--2--------2--2--2--------2--2--2--/--2---------------------------------------
A|--------0--------------0--------------0--/--0---------------------------------------
E|------------------------------------------------------------------------------------
 |
e|------------------------------------------------------------------------------------
B|--------------------------------------------5--3--5--3--5--3--5--3--5--3--5--3------
G|------------------------------------------------------------------------------------
D|--------------------------------------------------------------------------------5b--
A|------------------------------------------------------------------------------------
E|------------------------------------------------------------------------------------


______________________________________________________________________________________



e|------------------------------------------------------------------------------------
B|------------------------------------------2-----------------------------------------
G|------------------------1-----------1--4--1-----------------------------------------
D|-------------2----4--2-----4--2--2--------------------------------------------------
A|--2----4--2-------------------------------------------------------------------------
E|------------------------------------------------------------------------------------
 |
e|------------------------------------------------------------------------------------
B|------------------------------------------2-----------------------------------------
G|------------------------1-----------1--4--------------------------------------------
D|-------------2----4--2-----4--2--2--------------------------------------------------
A|--2----4--2-------------------------------------------------------------------------
E|------------------------------------------------------------------------------------


e|--------------------0---------------------------------------------------------------
B|-------------------------0----------------------------------------------------------
G|--1-----------1--4------------2----1------------------------------------------------
D|-----4--2--2--------------------------------2-------2-------------------------------
A|----------------------------------------4-------2-----------------------------------
E|--------------------------------------------------------2---------------------------
 |
e|------------------s12---------------------------------------------------------------
B|-------------------------12--------------------5-------5----------------------------
G|--1----------1--4--------------14----13----6-------4--------------------------------
D|-----4----2------------------------------------------------4------------------------
A|------------------------------------------------------------------------------------
E|------------------------------------------------------------------------------------


e|------------------------------------------------------------------------------------
B|----------------7--9--7-------------------------------------------------------------
G|------------6-9---------9-6-9-------------------------------------------------------
D|------6-7-9-------------------9-7--6-----6------------------------------------------
A|--7-9---------------------------------9----9-7--------------------------------------
E|-----------------------------------------------9-7-5h7p5-4--------------------------
 |
e|------------------7-----------------------------------------------------------------
B|-------------9-10---10-9---9--------------------------------------------------------
G|---------8-9-------------9---8-6----------------------------------------------------
D|--6-7-9--------------------------9-9-7-6-7-9-7-6------------------------------------
A|-------------------------------------------------7----------------------------------
E|---------------------------------------------------9-7------------------------------


______________________________________________________________________________________



e|------------------------------------------------------------------------------------
B|------------------------------------------------------------------------------------
G|------------------------------------------------------------------------------------
D|------------------------------------------------------------------------------------
A|------------------------------------------------------------------------------------
E|--0L--------------------------------------------------------------------------------
 |
e|------------------------------------------------------------------------------------
B|------------------------------------------------------------------------------------
G|------------------------------------------------------------------------------------
D|-----------0---------------2---2----------------------------------------------------
A|-----0--2------2-1-0---0------------------------------------------------------------
E|--0-------------------------------3b------------------------------------------------


e|------------------------------------------------------------------------------------
B|------------------------------------------------------------------------------------
G|------------------------------------------------------------------------------------
D|------------------------------------------------------------------------------------
A|------------------------------------------------------------------------------------
E|--(0)-------------------------------------------------------------------------------
 |
e|------------------------------------------5-----------------------------------------
B|------------------------------------------------------------------------------------
G|------------------------------2--0--2--0--2-----------------------------------------
D|-----------0---------------0--0-----0-----0-----------------------------------------
A|-----0--2------2-1-0---0------------------------------------------------------------
E|--0---------------------------------------------------------------------------------


e|------------------------------------------------------------------------------------
B|------------------------------------------------------------------------------------
G|------------------------------------------------------------------------------------
D|------------------------------------------------------------------------------------
A|------------------------------------------------------------------------------------
E|--(0)-------------------------------------------------------------------------------
 |
e|------------------------------------------------------------------------------------
B|------------------------------------------------------------------------------------
G|------------------------------------------------------------------------------------
D|-----------0---------------2---2----------------------------------------------------
A|-----0--2------2-1-0---0------------------------------------------------------------
E|--0-------------------------------3b------------------------------------------------


e|------------------------------------------------------------------------------------
B|------------------------------------------------------------------------------------
G|--------1-------------------1-------------------------------------------------------
D|--2--4---------2------2--4----------------------------------------------------------
A|-----------2------0------------0------2---------------------------------------------
E|----------------------------------4-------2---0-------------------------------------
 |
e|------------------------------------------------------------------------------------
B|------------------------------------------------------------------------------------
G|--------1-------------------1-------------------------------------------------------
D|--2--4---------2------2--4----------------------------------------------------------
A|-----------2------0------------0------2---------------------------------------------
E|----------------------------------4-------2---0-------------------------------------



e|------------------------------------------------------------------------------------
B|------------------------------------------------------------------------------------
G|------------------------------------------------------------------------------------
D|------------------------------------------------------------------------------------
A|------------------------------------------------------------------------------------
E|--0L--------------------------------------------------------------------------------
 |
e|------------------------------------------------------------------------------------
B|------------------------------------------------------------------------------------
G|------------------------------------------------------------------------------------
D|-----------0---------------2---2----------------------------------------------------
A|-----0--2------2-1-0---0------------------------------------------------------------
E|--0-------------------------------3b------------------------------------------------


e|------------------------------------------------------------------------------------
B|------------------------------------------------------------------------------------
G|------------------------------------------------------------------------------------
D|------------------------------------------------------------------------------------
A|------------------------------------------------------------------------------------
E|--(0)-------------------------------------------------------------------------------
 |
e|----------------------------5-6-7-6-5-----------------------------------------------
B|--------------------------------------8-5-------------------------------------------
G|------------------------------------------7-4---------------------------------------
D|-----------0------------------------------------------------------------------------
A|-----0--2------2-1-0---0------------------------------------------------------------
E|--0---------------------------------------------------------------------------------


e|------------------------------------------------------------------------------------
B|------------------------------------------------------------------------------------
G|------------------------------------------1----------------1------------------------
D|--------------------------------------2-4-------2------2-4--------------------------
A|--------------------------------------------2------0---------0---2------------------
E|---------------------------------------------------------------4---2-0--------------
 |
e|--------------------------------------0-2-4-----0------0-2-4------------------------
B|-----------------------------------------------------------------0------------------
G|--------------------------------------------3------2---------2-1--------------------
D|-----------0---------------2---2-----------------------------------4-2--------------
A|-----0--2------2-1-0---0------------------------------------------------------------
E|--0-------------------------------3b------------------------------------------------

______________________________________________________________________________________



e|------------------------------------------------------------------------------------
B|------------------------------------------2-----------------------------------------
G|------------------------1-----------1--4--1-----------------------------------------
D|-------------2----4--2-----4--2--2--------------------------------------------------
A|--2----4--2-------------------------------------------------------------------------
E|------------------------------------------------------------------------------------
 |
e|------------------------------------------------------------------------------------
B|------------------------------------------2-----------------------------------------
G|------------------------1-----------1--4--------------------------------------------
D|-------------2----4--2-----4--2--2--------------------------------------------------
A|--2----4--2-------------------------------------------------------------------------
E|------------------------------------------------------------------------------------


e|--------------------0---------------------------------------------------------------
B|-------------------------0----------------------------------------------------------
G|--1-----------1--4------------2----1------------------------------------------------
D|-----4--2--2--------------------------------2-------2-------------------------------
A|----------------------------------------4-------2-----------------------------------
E|--------------------------------------------------------2---------------------------
 |
e|------------------s12---------------------------------------------------------------
B|-------------------------12--------------------5-------5----------------------------
G|--1----------1--4--------------14----13----6-------4--------------------------------
D|-----4----2------------------------------------------------4------------------------
A|------------------------------------------------------------------------------------
E|------------------------------------------------------------------------------------


e|------------------------------------------------------------------------------------
B|---------------7--9---7-------------------------------------------------------------
G|-----------6-9------9---9-6-9-------------------------------------------------------
D|------6--9--------------------9-7-9--------6----------------------------------------
A|--7-9--------------------------------9--7----7--------------------------------------
E|-----------------------------------------------9-7--5-------------------------------
 |
e|------------------7-----------------------------------------------------------------
B|-------------9-10---9-10-9---9------------------------------------------------------
G|-------6-8-9---------------9---8-6--------------------------------------------------
D|--6--9-----------------------------9-9-7-6------------------------------------------
A|-------------------------------------------7----------------------------------------
E|---------------------------------------------9-7------------------------------------

______________________________________________________________________________________



e|------------------------------------------------------------------------------------
B|------------------------------------------------------------------------------------
G|------------------------------------------------------------------------------------
D|------------------------------------------------------------------------------------
A|------------------------------------------------------------------------------------
E|--0L--------------------------------------------------------------------------------
 |
e|------------------------------------------------------------------------------------
B|------------------------------------------------------------------------------------
G|------------------------------------------------------------------------------------
D|-----------0---------------2---2----------------------------------------------------
A|-----0--2------2-1-0---0------------------------------------------------------------
E|--0-------------------------------3b------------------------------------------------


e|------------------------------------------------------------------------------------
B|------------------------------------------------------------------------------------
G|------------------------------------------------------------------------------------
D|-------------------------4-2--------------------------------------------------------
A|------------------------------0-----2-----------------------------------------------
E|--(0)-----------------0---------4-2---2-0-------------------------------------------
 |
e|------------------------------------------------------------------------------------
B|------------------------------------------------------------------------------------
G|------------------------------------------------------------------------------------
D|-----------0------------------------------------------------------------------------
A|-----0--2------2-1-0----------------------------------------------------------------
E|--0---------------------------------------------------------------------------------


______________________________________________________________________________________



e|------------------------------------------------------------------------------------
B|--10b12tr---------------------------------------------------------------------------
G|------------------------------------------------------------------------------------
D|------------------------------------------------------------------------------------
A|------------------------------------------------------------------------------------
E|------------------------------------------------------------------------------------
 |
e|--------x-x-x-x--------x-x-x-x------------------------------------------------------
B|--------x-x-x-x--------x-x-x-x------------------------------------------------------
G|--9--9--x-x-x-x--7--7--x-x-x-x--5--4--2---------------------------------------------
D|--9--9--x-x-x-x--7--7--x-x-x-x--5--4--2---------------------------------------------
A|--7--7--x-x-x-x--5--5--x-x-x-x--3--2--0--5------------------------------------------
E|--------x-x-x-x--------x-x-x-x-----------3------------------------------------------


e|-------------------------15v17----15-14-12-15-14-12-15b17---------------------------
B|--11b12---------15v17---------------------------------------------------------------
G|------------------------------------------------------------------------------------
D|------------------------------------------------------------------------------------
A|------------------------------------------------------------------------------------
E|------------------------------------------------------------------------------------
 |
e|--------x-x-x-x--------x-x-x-x------------------------------------------------------
B|--------x-x-x-x--------x-x-x-x------------------------------------------------------
G|--9--9--x-x-x-x--7--7--x-x-x-x--5--4--2---------------------------------------------
D|--9--9--x-x-x-x--7--7--x-x-x-x--5--4--2---------------------------------------------
A|--7--7--x-x-x-x--5--5--x-x-x-x--3--2--0--5------------------------------------------
E|--------x-x-x-x--------x-x-x-x-----------3------------------------------------------


e|--15Lb17----11v12----------14-15-17-19tr--------------------------------------------
B|---------------------15-17----------------------------------------------------------
G|------------------------------------------------------------------------------------
D|------------------------------------------------------------------------------------
A|------------------------------------------------------------------------------------
E|------------------------------------------------------------------------------------
 |
e|--------x-x-x-x--------x-x-x-x------------------------------------------------------
B|--------x-x-x-x--------x-x-x-x------------------------------------------------------
G|--9--9--x-x-x-x--7--7--x-x-x-x--5--4--2---------------------------------------------
D|--9--9--x-x-x-x--7--7--x-x-x-x--5--4--2---------------------------------------------
A|--7--7--x-x-x-x--5--5--x-x-x-x--3--2--0--5------------------------------------------
E|--------x-x-x-x--------x-x-x-x-----------3------------------------------------------


e|--17b19p15-17b19p15----------------------12-15-19b21--------------------------------
B|--------------------17~---19s12----12-15--------------------------------------------
G|------------------------------------------------------------------------------------
D|------------------------------------------------------------------------------------
A|------------------------------------------------------------------------------------
E|------------------------------------------------------------------------------------
 |
e|-------2----------0--2--5-----------------------------------------------------------
B|------------0--2--------------------------------------------------------------------
G|------------------------------------------------------------------------------------
D|--4---------------------------------------------------------------------------------
A|------------------------------------------------------------------------------------
E|------------------------------------------------------------------------------------


e|---------------19-------------------------------------------------------------------
B|--19b21------------19br21p17--------------------------------------------------------
G|------------------------------------------------------------------------------------
D|------------------------------------------------------------------------------------
A|------------------------------------------------------------------------------------
E|------------------------------------------------------------------------------------
 |
e|--------x-x-x-x--------x-x-x-x------------------------------------------------------
B|--------x-x-x-x--------x-x-x-x------------------------------------------------------
G|--9--9--x-x-x-x--7--7--x-x-x-x--5--4--2---------------------------------------------
D|--9--9--x-x-x-x--7--7--x-x-x-x--5--4--2---------------------------------------------
A|--7--7--x-x-x-x--5--5--x-x-x-x--3--2--0--5------------------------------------------
E|--------x-x-x-x--------x-x-x-x-----------3------------------------------------------


e|--16-15-14--------------------------------------------------------------------------
B|-----------17-15-14-----------------------------------------------------------------
G|--------------------16-14-16--14b16----12v14----------------------------------------
D|------------------------------------------------------------------------------------
A|------------------------------------------------------------------------------------
E|------------------------------------------------------------------------------------
 |
e|--------x-x-x-x--------x-x-x-x------------------------------------------------------
B|--------x-x-x-x--------x-x-x-x------------------------------------------------------
G|--9--9--x-x-x-x--7--7--x-x-x-x--5--4--2---------------------------------------------
D|--9--9--x-x-x-x--7--7--x-x-x-x--5--4--2---------------------------------------------
A|--7--7--x-x-x-x--5--5--x-x-x-x--3--2--0--5------------------------------------------
E|--------x-x-x-x--------x-x-x-x-----------3------------------------------------------


e|------------------------------------------------------------------------------------
B|---------------------------15b17----------------------------------------------------
G|--14b16----14b16----16b17-----------------------------------------------------------
D|------------------------------------------------------------------------------------
A|------------------------------------------------------------------------------------
E|------------------------------------------------------------------------------------
 |
e|--------x-x-x-x--------x-x-x-x------------------------------------------------------
B|--------x-x-x-x--------x-x-x-x------------------------------------------------------
G|--9--9--x-x-x-x--7--7--x-x-x-x--5--4--2---------------------------------------------
D|--9--9--x-x-x-x--7--7--x-x-x-x--5--4--2---------------------------------------------
A|--7--7--x-x-x-x--5--5--x-x-x-x--3--2--0--5------------------------------------------
E|--------x-x-x-x--------x-x-x-x-----------3------------------------------------------


e|------------------------------------15--15--14--------------------------------------
B|--15b17--17-17-17--15b17--17-17-17-------------17-15-14-----15-14-------------------
G|--------------------------------------------------------16--------16-14-14v16-------
D|------------------------------------------------------------------------------------
A|------------------------------------------------------------------------------------
E|------------------------------------------------------------------------------------
 |
e|-------2----------0--2--5-----------------------------------------------------------
B|------------0--2--------------------------------------------------------------------
G|------------------------------------------------------------------------------------
D|--4---------------------------------------------------------------------------------
A|------------------------------------------------------------------------------------
E|------------------------------------------------------------------------------------


e|-----------17--19---19b21----r19-r19-r19-r19----------------------------------------
B|--------17----------19b21----r19-r19-r19-r19----------------------------------------
G|--14-16-----------------------------------------------------------------------------
D|------------------------------------------------------------------------------------
A|------------------------------------------------------------------------------------
E|------------------------------------------------------------------------------------
 |
e|------------------------------------------------------------------------------------
B|------------------------------------------------------------------------------------
G|------------------------------------------------------------------------------------
D|------------------------------------------------------------------------------------
A|------------------------------------------------------------------------------------
E|------------------------------------------------------------------------------------


e|----------------------------------16------------------------------------------------
B|--19b21--------19br21--17------17-----19--------------------------------------------
G|---------------------------18-------------------------------------------------------
D|------------------------------------------------------------------------------------
A|------------------------------------------------------------------------------------
E|------------------------------------------------------------------------------------
 |
e|------------------------------------------------------------------------------------
B|---------------------------------------------4br5--0--------------------------------
G|------------------------------------------------------0-----------------------------
D|------------------------------------------------------------------------------------
A|------------------------------------------------------------------------------------
E|------------------------------------------------------------------------------------


e|---------------------9-7------------------------------------------------------------
B|------------9---9h10-----10-9-7-----------------------------------------------------
G|------9---9---9-----------------9-6-------------------------------------------------
D|----9---9---------------------------9-7-6---7---------------------------------------
A|--7---------------------------------------9-7---------------------------------------
E|--------------------------------------------5---------------------------------------
 |
e|--------------------12-11-9-----9---------------------------------------------------
B|----------------------------12----12-10-9s0-----------------------------------------
G|--------------------------------------------2---------------------------------------
D|--------------------------------------------2---------------------------------------
A|--------------------------------------------0---------------------------------------
E|------------------------------------------------------------------------------------


______________________________________________________________________________________



e|------------------------------------------------------------------------------------
B|------------------------------------------------------------------------------------
G|------------------------------------------------------------------------------------
D|------------------------------------------------------------------------------------
A|------------------------------------------------------------------------------------
E|--0L--------------------------------------------------------------------------------
 |
e|------------------------------------------------------------------------------------
B|------------------------------------------------------------------------------------
G|------------------------------------------------------------------------------------
D|-----------0---------------2---2----------------------------------------------------
A|-----0--2------2-1-0---0------------------------------------------------------------
E|--0-------------------------------3b------------------------------------------------


e|------------------------------------------------------------------------------------
B|------------------------------------------------------------------------------------
G|------------------------------------------------------------------------------------
D|------------------------------------------------------------------------------------
A|------------------------------------------------------------------------------------
E|--(0)-------------------------------------------------------------------------------
 |
e|------------------------------------------5-----------------------------------------
B|------------------------------------------------------------------------------------
G|------------------------------2--0--2--0--2-----------------------------------------
D|-----------0---------------0--0-----0-----0-----------------------------------------
A|-----0--2------2-1-0---0------------------------------------------------------------
E|--0---------------------------------------------------------------------------------


e|------------------------------------------------------------------------------------
B|------------------------------------------------------------------------------------
G|------------------------------------------------------------------------------------
D|------------------------------------------------------------------------------------
A|------------------------------------------------------------------------------------
E|--0L--------------------------------------------------------------------------------
 |
e|------------------------------------------------------------------------------------
B|------------------------------------------------------------------------------------
G|------------------------------------------------------------------------------------
D|-----------0---------------2---2----------------------------------------------------
A|-----0--2------2-1-0---0------------------------------------------------------------
E|--0-------------------------------3b------------------------------------------------


e|------------------------------------------------------------------------------------
B|------------------------------------------------------------------------------------
G|--------1-------------------1-------------------------------------------------------
D|--2--4---------2------2--4----------------------------------------------------------
A|-----------2------0------------0------2---------------------------------------------
E|----------------------------------4-------2---0-------------------------------------
 |
e|------------------------------------------------------------------------------------
B|------------------------------------------------------------------------------------
G|--------1-------------------1-------------------------------------------------------
D|--2--4---------2------2--4----------------------------------------------------------
A|-----------2------0------------0------2---------------------------------------------
E|----------------------------------4-------2---0-------------------------------------



e|------------------------------------------------------------------------------------
B|------------------------------------------------------------------------------------
G|------------------------------------------------------------------------------------
D|------------------------------------------------------------------------------------
A|------------------------------------------------------------------------------------
E|--0L--------------------------------------------------------------------------------
 |
e|------------------------------------------------------------------------------------
B|------------------------------------------------------------------------------------
G|------------------------------------------------------------------------------------
D|-----------0---------------2---2----------------------------------------------------
A|-----0--2------2-1-0---0------------------------------------------------------------
E|--0-------------------------------3b------------------------------------------------


e|----------------------10-9-7---------------10b12------------------------------------
B|-----------------------------10-8-7-------------------------------------------------
G|------------------------------------9-7-6-------------------------------------------
D|------------------------------------------------------------------------------------
A|------------------------------------------------------------------------------------
E|--(0)-------------------------------------------------------------------------------
 |
e|------------------------------------------------------------------------------------
B|------------------------------------------------------------------------------------
G|------------------------------------------------------------------------------------
D|-----------0------------------------------------------------------------------------
A|-----0--2------2-1-0----------------------------------------------------------------
E|--0---------------------------------------------------------------------------------


e|--(12)------------------------------------------------------------------------------
B|------------------------------------------------------------------------------------
G|------------------------------------------------------------------------------------
D|------------------------------------------------------------------------------------
A|------------------------------------------------------------------------------------
E|--0L--------------------------------------------------------------------------------
 |
e|------------------------------------------------------------------------------------
B|------------------------------------------------------------------------------------
G|------------------------------------------------------------------------------------
D|-----------0---------------2---2----------------------------------------------------
A|-----0--2------2-1-0---0------------------------------------------------------------
E|--0-------------------------------3b------------------------------------------------


e|------------------------------------------------------------------------------------
B|------------------------------------------------------------------------------------
G|--------1-------------------1-------------------------------------------------------
D|--2--4---------2------2--4----------------------------------------------------------
A|-----------2------0------------0------2---------------------------------------------
E|----------------------------------4-------2---0-------------------------------------
 |
e|--0--2--4------0------0--2--4-------------------------------------------------------
B|-------------------------------------0----------------------------------------------
G|-----------3------2------------2--1-------------------------------------------------
D|------------------------------------------4---2-------------------------------------
A|------------------------------------------------------------------------------------
E|------------------------------------------------------------------------------------


______________________________________________________________________________________



e|------------------------------------------------------------------------------------
B|------------------------------------------2-----------------------------------------
G|------------------------1-----------1--4--1-----------------------------------------
D|-------------2----4--2-----4--2--2--------------------------------------------------
A|--2----4--2-------------------------------------------------------------------------
E|------------------------------------------------------------------------------------
 |
e|------------------------------------------------------------------------------------
B|------------------------------------------2-----------------------------------------
G|------------------------1-----------1--4--------------------------------------------
D|-------------2----4--2-----4--2--2--------------------------------------------------
A|--2----4--2-------------------------------------------------------------------------
E|------------------------------------------------------------------------------------


e|--------------------0---------------------------------------------------------------
B|-------------------------0----------------------------------------------------------
G|--1-----------1--4------------2----1------------------------------------------------
D|-----4--2--2--------------------------------2-------2-------------------------------
A|----------------------------------------4-------2-----------------------------------
E|--------------------------------------------------------2---------------------------
 |
e|------------------s12---------------------------------------------------------------
B|-------------------------12--------------------5-------5----------------------------
G|--1----------1--4--------------14----13----6-------4--------------------------------
D|-----4----2------------------------------------------------4------------------------
A|------------------------------------------------------------------------------------
E|------------------------------------------------------------------------------------

e|------------------------------------------------------------------------------------
B|-----------------7--9---7-----------------------------------------------------------
G|------------6--9------9---9-6-9-----------------------------------------------------
D|------6-7-9---------------------9---7-9------6-----------2--------------------------
A|--7-9-----------------------------------9-7----9-7-------2--------------------------
E|---------------------------------------------------9-5-4-0--------------------------
 |
e|-------------------7----------------------------------------------------------------
B|--------------9-10---10-9---9-------------------------------------------------------
G|--------6-8-9-------------9---8-6---------------------------------------------------
D|--6-7-9--------------------------7-9-9-7-6-7-9-7-6--------2-------------------------
A|---------------------------------------------------7------2-------------------------
E|-----------------------------------------------------9-7--0-------------------------


e|------------------------------------------------------------------------------------
B|------------------------------------------------------------------------------------
G|------------------------------------------------------------------------------------
D|-(2)--------------------------------------------------------------------------------
A|-(2)--------------------------------------------------------------------------------
E|-(0)--------------------------------------------------------------------------------
 |
e|------------------------------------------------------------------------------------
B|------------------------------------------------------------------------------------
G|--11pb12r11b12--------------------0s9--11b12r11b12----------------------------------
D|------------------------------------------------------------------------------------
A|------------------------------------------------------------------------------------
E|------------------------------------------------------------------------------------


______________________________________________________________________________________


e|------------------------------------------------------------------------------------
B|------------------------------------------------------------------------------------
G|------------------------------------------------------------------------------------
D|--2--0-2-------------------0-1-2--0-2-------------------0-1-------------------------
A|----------2-1-0------0-1-2-------------2-1-0------0-1-2-----------------------------
E|-----------------0-3--------------------------0-3-----------------------------------
 |
e|-------------------------------------------------------------------------------------
B|-------------------------------------------------------------------------------------
G|-------------------------------------------------------------------------------------
D|-------------------------------------------------------------------------------------
A|-------------------------------------------------------------------------------------
E|-------------------------------------------------------------------------------------


e|-------------------------------------------------------------------------------------
B|-------------------------------------------------------------------------------------
G|----------------0--------------------------------------------------------------------
D|--2--0-2----------4-2-0-----------------2-5-2----------------------------------------
A|----------2-1-0---------4-0---5----2-2-5---------------------------------------------
E|----------------------------4-3------------------------------------------------------
 |
e|-------------------------------------------------------------------------------------
B|-------------------------------------------------------------------------------------
G|----------------0----------------------------3---------------------------------------
D|--2--0-2----------4-2-0------------------2-5-----------------------------------------
A|----------2-1-0---------4-0---5------2-5---------------------------------------------
E|----------------------------4-3----3-------------------------------------------------



e|-------------------------------------------------------------------------------------
B|-------------------------------------------------------------------------------------
G|-------------------------------------------------------------------------------------
D|--2--0-2-------------------0-1-2--0-2-------------------0-1--------------------------
A|----------2-1-0------0-1-2-------------2-1-0------0-1-2------------------------------
E|-----------------0-3--------------------------0-3------------------------------------
 |
e|-------------------------------------------------------------------------------------
B|-------------------------------------------------------------------------------------
G|--4--2-4-------------------2-3-4--2-4-------------------2-3--------------------------
D|----------4-3-2----0-2-3-4-------------4-3-2----0-2-3-4------------------------------
A|-----------------2----------------------------2--------------------------------------
E|-------------------------------------------------------------------------------------


e|-------------------------------------------------------------------------------------
B|-------------------------------------------------------------------------------------
G|----------------0--------------------------------------------------------------------
D|--2--0-2----------4-2-0-----------------2-5-2----------------------------------------
A|----------2-1-0---------4-0---5----2-2-5---------------------------------------------
E|----------------------------4-3------------------------------------------------------
 |
e|-------------------------------------------------------------------------------------
B|----------------3-2-0----------------------3-----------------------------------------
G|--4--2-4--------------2-0------------0-2-4---3---------------------------------------
D|----------4-3-2-----------4-2-0----2-------------------------------------------------
A|----------------------------2-0------------------------------------------------------
E|-------------------------------------------------------------------------------------


______________________________________________________________________________________


// I don't think this is right, but good luck
e|-------------------------------------------------------------------------------------
B|-------------------------------------------------------------------------------------
G|-------------------------------------------------------------------------------------
D|--7b9r7------------------------------------------------------------------------------
A|-------------------------------------------------------------------------------------
E|-------------------------------------------------------------------------------------
 |
e|---------17-14--------------------------------------17-19-17v19-b19------------------
B|---------------17-14-------------------------17--20----------------------------------
G|---------------------16--------------------------------------------------------------
D|-------------------------------------------------------------------------------------
A|-------------------------------------------------------------------------------------
E|-------------------------------------------------------------------------------------


e|-------------------------------------------------------------------------------------
B|--------5--------------------------------------------------2-1-----------------------
G|--3-4-6----6-4-3-----4--3--------------2----------4----3g4-----4-2-------------------
D|------------------4----------2-3-4-2-4------4-2-4------------------4-----------------
A|---------------------------4---------------------------------------------------------
E|-------------------------------------------------------------------------------------
 |
e|-------------------------------------------------------------------------------------
B|-----------17------------------------------------------------------------------------
G|--15-16-18-----18-16-15------16--15--------------------------------------------------
D|-------------------------16----------------------------------------------------------
A|-------------------------------------------------------------------------------------
E|-------------------------------------------------------------------------------------


e|-------------------------------------------------------------------------------------
B|------5--------7------5-----7-----5------7-----5-------7-----------------------------
G|----3--------5------3-----5-----3------5-----3------5--------------------------------
D|--2-----4--------2------4-----2------4-----2-----4--------4--------------------------
A|-------------------------------------------------------------------------------------
E|-------------------------------------------------------------------------------------
 |
e|--------------------14-----------------14-----------------14-----------------14------
B|--------17-------13-----------17----13----------17-----13----------17-----13---------
G|-----15--------------------15----------------15-----------------15-------------------
D|--14-------16----------14--------16-------14--------16-------14-------16---------16--
A|-------------------------------------------------------------------------------------
E|-------------------------------------------------------------------------------------


e|-------------------------------------------------------------------------------------
B|--------------3L----tr5--------------------------------------------------------------
G|--3-4-3-2-0--------------------------------------------------------------------------
D|------------2------------------------------------------------------------------------
A|-------------------------------------------------------------------------------------
E|-------------------------------------------------------------------------------------
 |
e|-------------------------------------------------------------------------------------
B|-------------------------------------------------------------------------------------
G|--15-16-15-14------------------------------------------------------------------------
D|--------------17-14s0----------------------------------------------------------------
A|-------------------------------------------------------------------------------------
E|-------------------------------------------------------------------------------------


______________________________________________________________________________________


e|------------------------------------------------------------------------------------
B|------------------------------------------------------------------------------------
G|---------------------------------/5--3----------------------------------------------
D|------------3--1-----1----3-------------/6--4---------------------------------------
A|------------------3----------------------------/6--4--3-----------------------------
E|--1----1--------------------4-------------------------------------------------------
 |
e|------------------------------------------------------------------------------------
B|------------------------------------------------------------------------------------
G|---------------------------------/5--3----------------------------------------------
D|------------3--1-----1----3-------------/6--4---------------------------------------
A|------------------3----------------------------/6--4--3-----------------------------
E|--1----1--------------------4-------------------------------------------------------


e|------------------------------------------------------------------------------------
B|-------1-2-3-2-1--------------------------------------------------------------------
G|-----3-----------3-1-----------------------------1--4-------------------------------
D|---3-----------------3-0--------------1--4--2---------------------------------------
A|-1---------------------------1--4--2------------------------------------------------
E|--------------------------2---------------------------------------------------------
 |
e|------------------------------------------------------------------------------------
B|-------1-2-3-2-1--------------------------------------------------------------------
G|-----3-----------3-1-----------------------------1--4-------------------------------
D|---3-----------------3-0--------------1--4--2---------------------------------------
A|-1---------------------------1--4--2------------------------------------------------
E|--------------------------2---------------------------------------------------------


e|------------------------------------------------------------------------------------
B|------------------------------------------------------------------------------------
G|---------------------------------/5--3----------------------------------------------
D|-------3----3--1-----1----3-------------/6--4---------------------------------------
A|------------------3----------------------------/6--4--3-----------------------------
E|--1-------------------------4-------------------------------------------------------
 |
e|------------------------------------------------------------------------------------
B|---------------------------------/4--2----------------------------------------------
G|----------------------------------------5--3----------------------------------------
D|-------3----3--1-----1----3-------------------/6--4-----------------------------