Gametabs
Home
Tabs
Random

Sunshine Beach

Average rating: 5.000

2 ratings

Tabber:

Style:

Instrument:

Created: February 08, 2022 at 12:00 AM

                                            Sunshine Beach                                  


                                                          Cecil Chau (GuitarSVD)
Guitarra



                                  ^                      
     E  E   E  E  E   E   Q       E  E  E  E  Q    Q     
E||-----7---------7------------|--3--2--0---------------|
B||--------10--------10---L----|--3--------3--L---------|
G||-----7------7---------------|--2----------------2----|
D||--0-------------------------|--0---------------------|
A||----------------------------|------------------------|
E||----------------------------|------------------------|


                                ^                         
  E  E   E  E  E   E   Q        E   E   E   E   H         
-----7---------7------------|---7------10----------------|
--------10--------10---L----|--10--10------10---L--------|
-----7------7---------------|---7------------------------|
----------------------------|----------------------------|
----------------------------|----------------------------|
--8-------------------------|---8------------------------|


  E  E   E  E  E   E  E  S S    E  E  E  T  T S Q    E  E   
-----7---------7-------------|--3--2--0--2p-0--------------|
--------10--------10-------3-|----------------3-L----------|
-----7------7---------2--2---|-----------------------2-----|
--0--------------------------|--0-----------------------0--|
-----------------------------|-----------------------------|
-----------------------------|-----------------------------|


                                ^                         
  E  E   E  E  E   E   Q        E   E   E   E   H         
-----7---------7------------|---7------10----------------|
--------10--------10---L----|--10--10------10---L--------|
-----7------7---------------|---7------------------------|
----------------------------|----------------------------|
----------------------------|----------------------------|
--8-------------------------|---8------------------------|


  E  E  E  S  S Q    E  E     E  E  E  Q    Q    E   
--5--------3p-2------------|------------------------|
--------3-------3----L-----|--------3---------------|
-----0------------------0--|-----0-----2----0-------|
---------------------------|------------------------|
--2------------------------|--2------------------2--|
---------------------------|------------------------|


  E  E  E  S  S Q    E  E     E  E  E  E  E  E  E  E   
--5--------3p-2------------|-----------------------0--|
--------3-------3----L-----|--------3-----------------|
-----0------------------0--|-----0-----2-----0--------|
---------------------------|--------------------------|
--1------------------------|--1-----------------1-----|
---------------------------|--------------------------|


  S  S S  S S  S Q    Q    S  S    S  S S S S  S S  S S  S S S  E.   S  
--------------------------------|--------------------------5---10---10-|
--3h-5-5p-3-5p-3-L---------3h-5-|--5p-3----------7p-5-8p-7-------------|
-------2----L----2----2----L----|-------2-L-0h-2-------------7---------|
--0-----------------------------|--0-----------------------------------|
--------------------------------|--------------------------------------|
--------------------------------|--------------------------------------|


   E  S  S E   H         S  S  
--12----10-----------------10-|
--------------10--------10----|
-----------7---L--------------|
------7-----------------------|
------------------------------|
---8--------------------------|


   |-3-| |--|   |---3---|                           
   E   S S  E   E   E   E   E   T T  T T S  S S  S  
--12--10-------12--10------------------------------|
-----------10----------10--10---L-8-10-8-7-10---10-|
----------------7-----------------------------9----|
---------7-----------------------------------------|
---------------------------------------------------|
---8-----------------------------------------------|


  E  S  S S  S E.  S S S S S E     E  E  E  S S  S S  S S S  S  S    S  
-----------------------0-0------|-------------2p-0-3p-2-5---10---------|
--3--3h-5-5p-3-------3-----3----|------------------------------10-<>10-|
-----2----L----2---2---------2--|-----2--L--2-------------7------------|
--0-----------------------------|--0-----------------------------------|
--------------------------------|--------------------------------------|
--------------------------------|--------------------------------------|


  E  E  E  E  E  E  S    S    S    S  
-----------0--L------------<>10------|
----------------------<>10------<>10-|
--------7--------7--L----------------|
-----7-------------------------------|
-------------------------------------|
--8----------------------------------|


    S.  T S   S   S.  S.  S   S.  S.  E.   E   
--<>5-<>3---<>2-<>3-<>2-<>0-<>2-<>0-------10--|
------------------3-----------------<>3-------|
----------2-----------------------------------|
----------------------------------------------|
----3-----------------------------------------|
----------------------------------------------|


         NH                  NH    NH                                 
   E     E   E   S  S  E     E     E  E     E  E  E  E   Q    E   E   
--17------------15-14--------------------|-----------------------10--|
------------15--------15-----------------|--------------10----8------|
---0----------------------<>12--------0--|--------0--7---------------|
------<>12----------------------<>12-----|---------------------------|
-----------------------------------------|-----9---------------------|
-----------------------------------------|--7------------------------|


            NH    NH          NH                                    
   E  E     E     S  S  E     E   E  E     E  E  E  E  E  E   Q     
--17-------------15-14------------------|--------------------12----|
-----------------------15---------------|--------------8-----------|
------0--------<>12------------------0--|-----0--7--------7---L----|
---------<>12--------------<>12---------|-----------7--------------|
--13-----------------------------13-----|--------------------------|
----------------------------------------|--6-----------------------|


   E  E   E  E  E   E   E  S S    E  E  E  E  Q    E  E   
--10--7---------7--------------|--3--2--0----------------|
---------10--------10---L----3-|-----------3--L----------|
------7------7-------------2---|-------------------2-----|
---0---------------------------|--0-------------------0--|
-------------------------------|-------------------------|
-------------------------------|-------------------------|


                                ^                         
  E  E   E  E  E   E   Q        E   E   E   E   H         
-----7---------7------------|---7------10----------------|
--------10--------10---L----|--10--10------10---L--------|
-----7------7---------------|---7------------------------|
----------------------------|----------------------------|
----------------------------|----------------------------|
--8-------------------------|---8------------------------|


  E  E   E  E  E   E   E  S S    E  E  E  E  Q    E  E   
-----7---------7--------------|--3--2--0----------------|
--------10--------10---L----3-|-----------3--L----------|
-----7------7-------------2---|-------------------2-----|
--0---------------------------|--0-------------------0--|
------------------------------|-------------------------|
------------------------------|-------------------------|


                                ^                                               
  E  E   E  E  E   E   Q        Q     Q       H              W                  
-----7---------7------------|---7----------<>10--------|---<>L----------------||
--------10--------10---L----|--10----10----------------|----------------------||
-----7------7---------------|---7----------------------|----------------------||
----------------------------|--------------------------|----------------------||
----------------------------|--------------------------|----------------------||
--8-------------------------|---8----------------------|----------------------||




Duration Legend
---------------
W - whole
H - half
Q - quarter
E - 8th
S - 16th
T - 32nd
X - 64th
. - note dotted
|-n-|  - n-tuplets


Tablature Legend
----------------
L - tied note
x - dead note
g - grace note
(n) - ghost note
> - accentuded note
NH - natural harmonic
AH - artificial harmonic
TH - tapped harmonic
SH - semi harmonic
PH - pitch harmonic
h - hammer on
p - pull off
b - bend
br - bendRelease
pb - preBend
pbr - preBendRelease
brb - bendReleaseBend
\n/ - tremolo bar dip
\n - tremolo bar dive
-/n - tremolo bar Release up
/n\ - tremolo bar inverted dip
/n - tremolo bar return
-\n - tremolo bar Release down
S - shift slide
s - legato slide
/ -  slide into from below or out of upwards
\ -  slide into from above or out of downwards
~ - vibrato
W - wide vibrato
tr - trill
TP - tremolo picking
T - tapping
S - slap
P - pop
< - fade in
^ - brush up
v - brush down

        
Comments

@Sumsare (April 23, 2022 at 1:42 PM)

Amazing tab! I'd love to see more of your tab arrangements of the other soundtracks from the Golden Apple Archipelago <3