Gametabs
Home
Tabs
Random

Qingce Village Night

Average rating: 5.000

1 ratings

Tabber:

Style:

Instrument:

Created: January 03, 2021 at 12:00 AM

            Title: Qingce Village Night
SubTitle: Genshin Impact
Artist: Cecil Chau (GuitarSVD)
Music: Yu Peng Cheng
Tempo = 80
Nylon Guitar

Legend
L - tied note
x - dead note
h - hammer on/pull off
b - bend
s - slide
~ - vibrato
g - ghost note
> - accentuated note
t - trill
M - palm mute
. - staccato
P - popping (bass)
S - slapping (bass)
+ - tapping
W - wide vibrato
< - fade in
w - whammy bar
= - tremolo picking
v - brush up
^ - brush down
V - pick stroke up
n - pick stroke down


E |-----0----------------------|----------------|-----0----------------------|
B |--------------12------------|-----12---------|--------------12------------|
G |--------12----12-------12---|-----12---------|--------12-7--12-------12---|
D |--12-------7--------7-------|--7-------------|--12----------------7-------|
A |----------------------------|----------------|----------------------------|
E |----------------------------|----------------|----------------------------|


-------|-----12---------------------|-------|----------------------------|
-------|--------12------------------|-------|--------------12------------|
--12---|--7--------7--------12------|-------|--------0--19----------12---|
-------|--------------7-------------|--7----|--0--1--------------7-------|
-------|-----------------------7----|-------|----------------------------|
--12---|----------------------------|-------|----------------------------|


-------|-----0--3--5--7-----5--3----------------------------|
-------|--3--------------------------------0----------------|
--12---|--------------------------------0-----0-------------|
--12---|-----------------------------0----------------------|
-------|----------------------------------------------------|
-------|--------------------------3-------------------------|


--5--7----------------------------------|
--------------------7-----7-------------|
--------------------------0-------------|
-----------------0----------------------|
----------------------------------------|
--------------3--------------------2----|


-----0--3--10-7-----5--3----------------------------|
--3-----------------------------------0-------------|
--------------------------------0-------------------|
-----------------------------2----------------------|
----------------------------------------------------|
--------------------------0-------------------------|


--3----------------------------|--10-12----10----------0-------|
-----------3-----3-------------|--------12----10---------------|
-----------0-----0-------------|-----12-------------12---------|
-------------------------------|-------------------------------|
--------2----------------------|--------------------------0----|
-----0-------------------------|-------------------------------|


--5----------------------------|
-------------------------------|
-----------5-----5-------------|
--------7--9-----7-------------|
-----0-------------------------|
-------------------------------|


-----------10-7-----5-------------------------------|
--------8--------------8----------------------------|
--7--8--------------------------0-------------------|
-----------------------------0----------------------|
--------------------------------------6-------------|
--------------------------8-------------------------|


--3----------------------------|--0-----5--3----------------------------|
-----------------0-------------|--6-----------------------------0-------|
-----------0h-2-----0----------|-----7-----------------------0----------|
--------0--------------0-------|-----------------7L-7-------------------|
--------------------------2----|--------------5-------------------------|
-----3-------------------------|--------------------------3-------------|


--0--5--5--7--5L------------------------------------|
-----------------------------------0--5-----0-------|
--------------------------------2--------2----------|
-----------------------------2-----------------2----|
--------------------------3-------------------------|
----------------------------------------------------|


--5-----------5--7--10-7----------------------------|
-----------------------------------0--5-----0-------|
--------------------------------2-------------------|
-----------------------------2----------------------|
--------------------------3-------------------------|
----------------------------------------------------|


-----5--5--7--5L------------------------------------|
--3-----------------------------3--0--------0-------|
--------------------------------------7-------------|
-----------------------------0-----------7-----0----|
--------------------------2-------------------------|
----------------------------------------------------|


--5-----------5--7--10-12---------------------------|
-----------------------------------0--------0-------|
--------------------------------2-----7-------------|
-----------------------------0----------------------|
--------------------------2-------------------------|
-----------------------------------------------12---|


--15----------7--5-----15---------------------------|
--------------8--7--8-----------0-------------------|
--------------------0--------0-----0L-0-------------|
----------------------------------------------------|
--------------------------0-------------------------|
----------------------------------------------------|


--12----------3--------0----------------------------|--7-----2--5--7----|
--------10-8--------------------------------1-------|-----0--0--0--0----|
-----------------------------7L-7--------2----------|-----0--0--0--0----|
--------------------------0-----------0-------------|--------0----------|
----------------------------------------------------|-------------------|
----------------------------------------------------|-----3-------------|


--0-----------5--3--0-------------------|
--0-----6-----0-----6-------------------|
--------5-----5-----7--7----------------|
-----------------------------------6----|
----------------------------------------|
--------------------------3-----3-------|


--0--------7--------------------------0-------------|
-----10-10----10L------------------0--------0-------|
----------------------------------------------------|
--------------------------------7--------7----------|
-----------------------------7-----------------7----|
--------------------------9-------------------------|


--------------5--7--10-7----------------------------|
--10-------------------------------0--------0-------|
--------------------------------------7-------------|
--------------------------------7--------7----------|
-----------------------------6-----------------6----|
--------------------------8-------------------------|


-----5--5--7--5L------------------------------------|
--3--------------------------------0--3-----0-------|
--------------------------------2--------2----------|
-----------------------------0-----------------0----|
--------------------------2-------------------------|
----------------------------------------------------|


--5-----------5--7--10-12-------1-------------------|
--------------------------------3-----5-------------|
-----------------------------2--------4-------------|
----------------------------------------------------|
----------------------------------------------------|
--------------------------0-------------------------|


--5-----------5--7--10-12------|--5-----3-----3--------0-------|
--5--8L-8----------------------|--5-----------0----------------|
--5----------------------------|--4----------------------------|
--------------------------7----|--------------------------0----|
-------------------------------|-------------------------------|
-------------------------------|-------------------------------|


--3----------------------------|-------|-----0----------------------|
--------------------------0----|--3----|--------------12------------|
--------------------0h-2-------|--0----|--------12-------------12---|
--------------0h-2-------------|-------|--12-------7--------7-------|
--------0h-2-------------------|-------|----------------------------|
-----3-------------------------|-------|----------------------------|


----------------|-----0----------------------|-------|
-----12---------|--------------12------------|-------|
----------------|--------12-7-----------12---|--12---|
--7-------------|--12----------------7-------|-------|
----------------|----------------------------|-------|
----------------|----------------------------|-------|


-----12---------------------|-------|----------------------------|-------|
--------12------------------|-------|--------------12------------|-------|
--7--------7--------12------|-------|--------0--19----------12---|--12L--|
--------------7-------------|--7----|--0--1--------------7-------|-------|
-----------------------7----|-------|----------------------------|-------|
----------------------------|-------|----------------------------|-------|


-------||
-------||
--12---||
-------||
-------||
-------||


        
Comments

No comments yet