Gametabs
Home
Tabs
Random

Village

Average rating: No ratings

Composer:

Tabber:

Style:

Instrument:

Created: March 17, 2011 at 12:00 AM

            Song: Village
Game: Gargoyle's Quest
Composer: Yoko Shimomura
Tabbedby: Wren 


E|------------------------|------------------------------|-----------------------------------|
B|------------------------|------------------------------|-----1---0---3---1---0-----0---3---|
G|------------------------|-----2---1---2----------------|-2----------------------2----------|
D|---------------3----2---|-----------------3---2----2---|-----------------------------------|
A|-0----3----2------------|------------------------------|-----------------------------------|
E|------------------------|------------------------------|-----------------------------------|

   tr~                                                                tr~
E|-0(1)-----0---5---8---7---0---|-1---3---5---1---0-----------------|---------------0--------|
B|------4-----------------------|---------------------3--1--3---0---|-1(3)------0------------|
G|------------------------------|-----------------------------------|-------2----------------|
D|------------------------------|-0---------------------------------|-------------------2----|
A|------------------------------|-----------------3-----------------|-2----------------------|
E|------------------------------|-----------------------------------|-----------4------------|

                                     tr~
E|---------------------0---1-------|-4(5)-2---4---5-----|
B|---------0---1---3-----------3---|--------------------|
G|-----2---------------------------|--------------------|
D|---------2-------0---------------|--------------------|
A|-0-----------------------2-------|-0------------0-----|
E|---------------------------------|------4-------------|




        
Comments

No comments yet