Gametabs
Home
Tabs
Random

Lagoon

Average rating: No ratings

Composer:

Tabber:

Style:

Instrument:

Created: June 08, 2011 at 12:00 AM

                         Fury of the Furries - Lagoon Stage BASS TAB
                     Composed by Frederic Motte

               Tabbed by auriplane ([email protected])


NOTE: Frederic should have accents over the E's, but I'm not sure how to
type those.  Sorry!  Five-string bass, standard tuning.  Use a wah pedal
to make it funkier :-)

NOTE 2: This song is a semitone (one fret) higher on the AdLib version.

NOTE 3: You can buy this soundtrack from the composer now: http://elmobo.bandcamp.com/


        Part A   (0:00)

G |--------------------------------|--------------------------------|
D |--------------------------------|--------------------------------|
A |--------------------------------|----------------------------6-8-|
E |--------------------------------|--------------------------------|
B |6-------------------------------|--------------------------6-----|

G |--------------------------------|--------------------------------|
D |--------------------------------|--------------------------------|
A |--------------------------------|----------------8-6-------------|
E |--------------------------------|----------------------6s7-------|
B |6-------------------------------|----------------------------9---|

G |--------------------------------|--------------------------------|
D |--------------------------------|--------------------------------|
A |--------------------------------|----------------------------6-8-|
E |--------------------------------|--------------------------------|
B |6-------------------------------|--------------------------6-----|

G |--------------------------------|--------------------------------|
D |--------------------------------|----------------------------10\3|
A |--------------------------------|--------------------------------|
E |--------------------------------|6-6---6---6-6-----------8-------|
B |6-------------------------------|--------------------------------|

        Part B   (0:16)

G |------------------5-------5-----|--------------------------------| \
D |----------1-3---------------3---|----------3-4-------4-----3-----|  |    
A |----------------------3---------|--------------------------------|  |
E |1-------------1-----------------|2-------------2-------2-----2---|  |
B |--------------------------------|--------------------------------|  |
                                                                       | x2
G |------------------5-------5-----|--------------------------------|  |
D |----------1-3---------------3---|----------3-4-------4-----3-4---|  |    
A |----------------------3---------|--------------------------------|  |
E |1-------------1-----------------|2-------------2-------2---------|  |
B |--------------------------------|--------------------------------| /

G |--------------------------------|--------------------------------| \
D |------------6---7---------7-----|------------4-6-----------6-----|  |    
A |--------------------------------|--------------------------------|  |
E |5-----------------5---5-----5---|4---------4-------4-----4---4---|  |
B |--------------------------------|--------------------------------|  |
                                                                       | x2
G |--------------------------------|--------------------------------|  |
D |------------6---7---------7-----|------------4-6-----------6-----|  |    
A |--------------------------------|--------------------------------|  |
E |5-----------------5---5-----5---|4---------4-------4---4-----4---|  |
B |--------------------------------|--------------------------------| /

        Part B'  (0:47)

    Same as part B, but for the last measure, play this instead:

                                   |--------------------------------|
                                   |--------------------------------|
                                   |--------------------------------|
                                   |7-------6-------5---------------|
                                   |------------------------16s9----|

        Part C   (1:18)

G |--------------------------13----|--------------------------------| \
D |--------------------------------|----------6-8-------8-----6-----|  |
A |----------1011--------11--------|--------------------------------|  |
E |--------------------------------|6-------------6-------6-----6---|  |
B |9-------------9---9---------9---|--------------------------------|  |
                                                                       | x2
G |------------------5-------5-----|--------------------------------|  |
D |--------------------------------|--------------------------------|  |
A |----------6-8---------5-----8---|----------8-9-------9-----8-9---|  |
E |--------------------------------|--------------------------------|  |
B |6-------------6-----------------|7-------------7-------7---------| /

        Part D   (1:33)

G |--------------------------------|--------------------------------|
D |--------------------------------|--------------------------------| x3
A |------------5-7---7---5-7-5-----|----------------------------5-7-|
E |----------------------------7---|5-----5-----5-----5---5-7-7-----|
B |5---------5---------------------|----------5---------------------|

G |--------------------------------|--------------------------------|
D |--------------------------------|--------------------7---5-------|
A |------------5-7---7---5-7-5-----|--------------------------------|
E |----------------------------7---|5-----5-----5---5-----------5---|
B |5---------5---------------------|----------5---------------------|

        Part E   (1:48)

G |------------------------6-4-----|--------------------------------|
D |--------------------------------|--------------4---4---2-4-2-----|
A |4---------4---4---4-------------|------------4---------------4-2-| x3
E |----4---7-------------7-----4---|2---2---------------------------|
B |--------------------------------|--------2-5---------------------|

G |------------------------6-4-----|--------------------------------|
D |--------------------------------|--------------4---4---2-4-2-4---|
A |4---------4---4---4-------------|------------4-------------------|
E |----4---7-------------7-----4---|2---2---------------------------|
B |--------------------------------|--------2-5---------------------|

        Part F   (2:03)

G |--------------------------------|--------------------------------| \
D |--------------------------------|--------------------------------|  |
A |----------------------------7---|----------------------------7---|  |
E |--------------------------------|--------------------------------|  |
B |5-------------------------------|5-------------------------------|  |
                                                                       | x2
G |--------------------------------|--------------------------------|  |
D |--------------------------------|--------------------------------|  |
A |----------------------------6---|----------------------------6---|  |
E |--------------------------------|--------------------------------|  |
B |4-------------------------------|4-------------------------------| /

        Part G   (2:19)

G |--------------------------------|--------------------------------| \
D |--------------------------------|--------------------------------|  |
E |--------------------------------|----------------------------7---|  |
A |------7-7-------------7---7-----|------7-7-------------7---7-----|  |    
B |5-------------5---5---------5---|5-------------5---5-------------|  |
                                                                       | x2
G |--------------------------------|--------------------------------|  |
D |--------------------------------|--------------------------------|  |
E |--------------------------------|--------------6-----------------|  |
A |------6-6-------------6---6-----|------6-6---------6-----6-------|  |    
B |4-------------4---4---------4---|4-----------4---------4-----4---| /

        Part H   (2:34)

G |--------------------------------|--------------------------------| \
D |--------------------------------|--------------------------------|  |
A |------7-7-------------7---7-----|------6-6-------------6---6-----|  |
E |5-------------5---5---------5---|4-------------4---4---------4---|  |    
B |--------------------------------|--------------------------------|  |
                                                                       | x2
                                    1st ending                         |
G |--------------------------------|--------------------------------|  |
D |--------------------------------|--------------6-----------------|  |
A |------7-7-------------7---7-----|------6-6---------6-----6-------|  |    
E |5-------------5---5---------5---|4-----------4---------4-----4---| /
B |--------------------------------|--------------------------------|

                                    2nd ending
                                   |--------------------------------|
                                   |----------------4-6---6---4-----|
                                   |------------6---------------6---|
                                   |4-------------------------------|
                                   |--------------------------------|


        
Comments

No comments yet