Gametabs
Home
Tabs
Random

Lapis Philosophorum

Average rating: 5.000

10 ratings

Composer:

Tabber:

Style:

Instrument:

Created: April 15, 2012 at 12:00 AM

            Lapis Philosophorum                               
Piano Solo Version
Fullmetal Alchemist:Brotherhood
Music By Akira Senju


Time Signature:2/4

*Capo On 2nd Fret



     E  E  E  E     Q       E  E  E  E     Q       E  E  E  E     E.  S E.  S  
E||--------------|--0----|--------------|--0----|--0-----0-----|--L-----0---1-|
B||--------0-----|-------|--------0-----|-------|--------0-----|--1---3-------|
G||--------------|-------|--------------|-------|--------------|--------------|
D||-----2-----2--|-------|-----2-----2--|-------|-----2-----2--|--------------|
A||--0-----------|-------|--0-----------|-------|--0-----------|--------------|
E||--------------|-------|--------------|-------|--------------|--------------|


  E  E  E  E     Q    Q       E  E  E  E     E.  S E.  S    E  E  E  E   
--------------|------------|--------------|------------0-|--------------|
--3-----3-----|--L---------|--3-----3-----|--L---2-3-----|--2-----2-----|
--------4-----|--4---------|--------4-----|--4-----------|--------2-----|
-----3-----3--|------------|-----2-----2--|--------------|-----2-----2--|
--0-----------|------------|--------------|--------------|--------------|
--------------|------------|--4-----------|--------------|--3-----------|


  Q    E  S S    E  E  E  E     E.  S E.  S    E  E  E  E     E  S S E  S S  
--------------|--5-----5-----|--L---3-5---6-|--5-----3-----|--L----0-1----3-|
--L-----------|--------------|--3-----------|--------------|----------------|
--2-------L-2-|--------2-----|--------------|--------2-----|---------2------|
--------------|-----0-----0--|--------------|-----0-----0--|----------------|
--------------|--------------|--------------|--------------|-----4------4---|
--------------|--1-----------|--------------|--0-----------|--0-------------|


  E  E  E  E     E  S S E  S S    E  E  E  E     E  E  E  S S    E  E  E  E   
--2-----2-----|--L-------------|--0-----0-----|--L----------0-|--8-----0-----|
--------------|-------0-1----0-|--------------|---------------|--------0-----|
--------2-----|----------------|--------2-----|--1-----1------|--------------|
--1-----------|--1------4------|-----0-----0--|-----0-----0---|-----------2--|
-----3-----3--|-----2------2---|--------------|---------------|--0--7--------|
--------------|----------------|--0-----------|---------------|--------------|


  E.  S E.  S    E  E  E  E     Q    E.  S    E  E  E  E     E.  S E.  S  
--L---5-7---8-|--7-----0-----|--L--------0-|--6-----5-----|--L---0-1---3-|
--1-----------|--------0-----|--3----------|--------2-----|--2-----------|
--------------|--------------|-------------|--------------|--------------|
--------------|-----2-----2--|-------------|-----2-----2--|--------------|
--------------|--------------|-------------|--------------|--------------|
--------------|--4-----------|-------------|--3-----------|--------------|


  E  E  E  E     Q    E.  S    E  E  E  E     E.  S E.  S    E  E  E  E   
--5-----------|-----------5-|--8-----0-----|--L---5-7---8-|--6-----1-----|
--------3-----|--L----------|--------------|--------------|--------------|
--------2-----|--2----------|--------2-----|--2-----------|--------------|
-----0-----0--|-------------|--------------|--------------|--0-----3-----|
--------------|-------------|-----3-----3--|--------------|-----1-----1--|
--1-----------|-------------|--0-----------|--------------|--------------|


  E.  S E.  S    E  E  E  E     E.  S E.  S    E  E  E  E     Q    Q     
--L---1-3---1-|--0-----0-----|--L---0-1---0-|--5-----------|--L---------|
--------------|--------------|--------------|--------------|------------|
--3-----------|--------2-----|--1-----------|--------2-----|------------|
--------------|-----0-----0--|--------------|-----2-----2--|------------|
--------------|--------------|--------------|--0-----------|--0---------|
--------------|--0-----------|--------------|--------------|------------|


  E  E  E  E     E.  S E.  S    E  E  E  E     E.  S E.  S    E  E  E  E   
--8-----0-----|--L---5-7---8-|--6-----1-----|--L---1-3---1-|--0-----0-----|
--------0-----|--1-----------|--------------|--------------|--------------|
--------------|--------------|--------------|--3-----------|--------2-----|
-----------2--|--------------|--0-----3-----|--------------|-----0-----0--|
--0--7--------|--------------|-----1-----1--|--------------|--------------|
--------------|--------------|--------------|--------------|--0-----------|


                                                          NH             
  E.  S E.  S    E  E  E  E     Q       E  E  E  E        Q              
--L---0-1---0-|--5-----5-----|--0----|--------------|--<>12----|-------||
--------------|--------0-----|-------|--------0-----|----------|-------||
--1-----------|--------------|-------|--------------|----------|-------||
--------------|-----2-----2--|-------|-----2-----2--|----------|-------||
--------------|--0-----------|-------|--0-----------|----------|-------||
--------------|--------------|-------|--------------|----------|-------||




Duration Legend
---------------
H - half
Q - quarter
E - 8th
S - 16th
. - note dotted


Tablature Legend
----------------
L - tied note
NH - natural harmonic
        
Comments

No comments yet