Gametabs
Home
Tabs
Random

Victory is Near

Average rating: No ratings

Tabber:

Style:

Instrument:

Created: December 17, 2020 at 12:00 AM

            Fire Emblem Shador Dragon and the Blade of Light
Map Theme

Guitar part
e|-----------------------------|
B|-8-6-5---------8-6-5-------5~|
G|-------7-5-7-5-------7-5-7---|
D|-----------------------------|
A|-----------------------------|
E|-----------------------------|

e|------------------|
B|-5-6-3-6-5-6-3-6--|
G|------------------|
D|------------------|
A|------------------|
E|------------------|

Bass part

G|-------------------------------------------------|----------------|
D|-------------------------------------------------|----------------|
A|-3-3-3-3-3-3-0-0-0-0-0-0-------------------------|--8~-7~-6~-5~---|
E|-------------------------1-1-1-1-1-1-0-0-0-0-0-0-|----------------|
        
Comments

No comments yet