Gametabs
Home
Tabs
Random

Leif's Army - In Search of Victory ~ Base

Average rating: 5.000

2 ratings

Composer:

Tabber:

Style:

Instrument:

Created: October 08, 2021 at 12:00 AM

            Leif's Army - In Search of Victory ~ Base

Based on the guitar part of the Galeforce arrangement from 'Sounds of Fire Emblem from Cipher Festival'

 ~ Intro ~
e|-------------------------------|----------------------------------|
B|-------------------------------|----------------------------------|
G|--14-15-14-----12-12---10-10---|--7--10--5--7------------5--------|
D|-------------------------------|------------------8--7-8----------|
A|-------------------------------|-----------------------------8-8--|
E|-------------------------------|----------------------------------|


 ~ Main Melody ~
e|-----------------------------|-------------------------------|----------------------------|
B|-----------------------------|-------------------------------|----------------------------|
G|--------5----------5--7------|-----5--7/8-------7--5--7------|--------5---------5--7------|
D|-----8----------8------------|--8----------------------------|-----8---------8------------|
A|--8--------------------------|-------------------------------|--8-------------------------|
E|-----------------------------|-------------------------------|----------------------------|

e|-------------------------------|----------------------------|----------------------------|
B|-------------------------------|----------------------------|----------------------------|
G|-----5--7/8-------10--5/7--7---|--7--5----------------5-----|-----------7--5-------------|
D|--8----------------------------|--------8-------7--8--------|--7-----5--------7-----5----|
A|-------------------------------|----------------------------|-----8--------------8-------|
E|-------------------------------|----------------------------|----------------------------|

e|------------------------------------|-----------------------|-------------------------|------------------------|
B|------------------------------------|-----------------------|-------------------------|------------------------|
G|--------5-----5--7--8-----10--8--7--|--7--5--------------5--|--10--8--7--5-----7--5---|---5--7--8----8--7--5---|
D|--7--8------------------------------|--------8-----7--8-----|---------------8---------|------------------------|
A|------------------------------------|-----------------------|-------------------------|------------------------|
E|------------------------------------|-----------------------|-------------------------|------------------------|

e|-------------------------------|----------------------------|
B|-------------------------------|----------------------------|
G|--------5--7------5--7--8------|--7--5--7-------------------|
D|-----8-------------------------|----------------------------|
A|--8----------------------------|----------------------------|
E|-------------------------------|----------------------------|

e|-------------------------------|----------------------------|
B|-------------------------------|----------------------------|
G|--------5--5/7----5--7--7/8----|--10--5--7--7---------------|
D|-----8-------------------------|----------------------------|
A|--8----------------------------|----------------------------|
E|-------------------------------|----------------------------|

e|-------------------------------|----------------------------------------------|
B|-------------------------------|----------------------------------------------|
G|--9--11--13-----9------13--13--|--15--13--12------16-----16--15--13--11--13---|
D|-------------------9-----------|--------------13------------------------------|
A|-------------------------------|----------------------------------------------|
E|-------------------------------|----------------------------------------------|

e|-----------------------------------|----------------------------|
B|-----------------------------------|----------------------------|
G|--------11--13-------12--13--15----|----------------------------|
D|-----9-----------------------------|----------------------------|
A|--9--------------------------------|----------------------------|
E|-----------------------------------|----------------------------|


 ~ Ending ~
e|-------------------------------|----------------------------------|
B|-------------------------------|----------------------------------|
G|--------5----------5--7--------|-----5--7/8--------7--5--5/7--7---|
D|-----8----------8--------------|--8-------------------------------|
A|--8----------------------------|----------------------------------|
E|-------------------------------|----------------------------------|

e|-------------------------------|----------------------------------|
B|-------------------------------|----------------------------------|
G|--------5----------5--7--------|--5--7--8----------10--5--5/7--7--|
D|-----8----------8--------------|----------------------------------|
A|--8----------------------------|----------------------------------|
E|-------------------------------|----------------------------------|



        
Comments

@AlaskanPanda (October 20, 2021 at 5:27 PM)

I noticed a typo in the last line of the main melody after I uploaded. The last measure of that part should be:

e|-----------------------------------|----------------------------| B|-----------------------------------|----------------------------| G|-----9--11--13-------12--13--15----|----------------------------| D|--9--------------------------------|----------------------------| A|-----------------------------------|----------------------------| E|-----------------------------------|----------------------------|