Gametabs
Home
Tabs
Random

comrades

Average rating: No ratings

Composer:

Tabber:

Style:

Instrument:

Created: January 20, 2019 at 12:00 AM

            Fire Emblem Sacred Stones - Comrades

e|--------------------------|-----------------------------------------8------|
B|-------------10-11-10-11--|-------10~-10-11-10-8-10-8-----------------8----|
G|--9-10-9-10---------------|-9-7-9---------------------10-9~-10-9-10-----9~-|
D|--------------------------|------------------------------------------------|
A|--------------------------|------------------------------------------------|
E|--------------------------|------------------------------------------------|

e|-------------------------------------------------|
B|-------10~-10-11-10-8-10-8-------------8---10~---|
G|-9-7-9---------------------10-9~-7-5-7---9-------|
D|-------------------------------------------------|
A|-------------------------------------------------|
E|-------------------------------------------------|

e|--------------------------------------------------------|
B|--------6~-------8~-------10~-10-8-6-8----8-10-----10~--|
G|-7-5-7-----7-5-7----9-7-9--------------7~------9-7------|
D|--------------------------------------------------------|
A|--------------------------------------------------------|
E|--------------------------------------------------------|

e|------------------------------------|
B|---10-8-6-5-5-6-5-5-----6-8-6~-10~--|
G|-7------------------7-7-------------|
D|------------------------------------|
A|------------------------------------|
E|------------------------------------|


        
Comments

No comments yet