Gametabs
Home
Tabs
Random

Victory is Near

Average rating: No ratings

Composer:

Tabber:

Style:

Instrument:

Created: October 21, 2008 at 12:00 AM

            Victory is Near
Fire Emblem: Path of Radiance
Composed by Yuka Tsujiyoko, Yoshito Hirano, Saki Haruyama, Naoko Mitome, Atsushi Yoshida, Kanako Teramae
Tabbed by hslesperance
10/13/08

Standard Tuning

e-------9-11--9--8-9--8-----8----------------9-11---
B-----9------------------11----11--9-11----9--------
G---8------------------------------------8----------
D---------------------------------------------------
A---------------------------------------------------
E---------------------------------------------------

e---15--16-----------------------11h13p11-----------
B----------16--14--13-----13--14-----------14-13----
G---------------------15----------------------------
D---------------------------------------------------
A---------------------------------------------------
E---------------------------------------------------

e-------11--9--8-9--8-----8----------------9-11-----
B---11-----------------11----11--9-11----9----------
G--------------------------------------8------------
D---------------------------------------------------
A---------------------------------------------------
E---------------------------------------------------

e---15--16-----15--16-18--16-15--16h18p16-15--------
B----------16--------------------------------18-16--
G---------------------------------------------------
D---------------------------------------------------
A---------------------------------------------------
E---------------------------------------------------

e-------20-----L--18--20--18------------------------
B-------------16--------------21--------------------
G---17--------------------------------------20------
D---------------------------------------------------
A---------------------------------------------------
E---------------------------------------------------

e------------------15-16----------18--20--21--23----
B---13-14----13-14--------13--16--------------------
G---------15----------------------------------------
D---------------------------------------------------
A---------------------------------------------------
E---------------------------------------------------

e---24--22--21----18--16----------------------------
B-------------------------16----16-18-19------------
G---------------------------------------------------
D---------------------------------------------------
A---------------------------------------------------
E---------------------------------------------------

e---------------------------------------------------
B---19--21--19--17--16------------------------------
G-----------------------18--16----------------------
D---------------------------------18----------------
A---------------------------------------16--14--16--
E---------------------------------------------------

e---------------------------------------------------
B---------------------------------------------------
G---15--18--------15--------14--------18--------17--
D---------------------------------------------------
A---------------------------------------------------
E---------------------------------------------------

e---------------------------------------------------
B--------------------------------------9-11---------
G--------------8-10-11-10-8-8-10-11-11--------------
D---8-10-11-11------------------------------8-10-11-
A---------------------------------------------------
E---------------------------------------------------

e---------------------------------------------------
B--------------------------------9-9----------------
G----------------------8-10-9-11-----11-9-----------
D---11-10-8-8-10-11-11---------------------8-10-11--
A---------------------------------------------------
E---------------------------------------------------

e---------------------------------------------------
B------------------------------9-10-------------9---
G---8-10-11-11-10-8-8-10-11-11-------8-10-11-11-----
D---------------------------------------------------
A---------------------------------------------------
E---------------------------------------------------

e---------------------5-5----4-4--------------------
B---11--9-------------------------------------------
G--------------2-2----------------1-1---------------
D----------------------------------------1----------
A------------------------------------------3--------
E-----------------------------------------------4-4-

e---------6-8------6-8---8-9-11--9--8-9--8-----8----
B-------------9--9-----9--------------------11------
G-----5-8-------------------------------------------
D---6-----------------------------------------------
A---------------------------------------------------
E---------------------------------------------------

h - hammer on
p - pull off
L - tied note

        
Comments

No comments yet