Gametabs
Home
Tabs
Random

With Mila's Divine Protection

Average rating: No ratings

Composer:

Tabber:

Style:

Instrument:

Created: August 23, 2019 at 12:00 AM

            Fire Emblem Echoes: Shadows of Valentia, With Mila's Divine Protection

This is a bit different from the SSB mix, haven't quite got all the strings
parts but this is good enough to play along to.


seems like there's also slide up to F# (14th fret) on the e after the high e 
(12th fret) but also sounds fine skipping that

e|----------------------------------(9)-------------------9-9h11h12----------|
B|-------------------------9-9h11h12-9-11~--9h11h12-11h12-----------12-11~---|
G|--10~--10~-8h10h11-10h11---------------------------------------------------|
D|---------------------------------------------------------------------------|
A|---------------------------------------------------------------------------|
E|---------------------------------------------------------------------------|

				  X2
e|-13----13----13----13----13-----|------------------------------------------|
B|----11----11----11----11----11--|-11-11--11-11--11-11--11-11--12-12--------|
G|--------------------------------|------------------------------------------|
D|--------------------------------|------------------------------------------|
A|--------------------------------|------------------------------------------|
E|--------------------------------|------------------------------------------|

			   | Flurish from the strings part
e|----------------------------------11-9-------------------------------------|
B|--------------------------9-11-12------------------------------------------|
G|-3-3--3-3--3-3--3-3--4-4---------------------------------------------------|
D|-3-3--3-3--3-3--3-3--4-4---------------------------------------------------|
A|---------------------------------------------------------------------------|
E|---------------------------------------------------------------------------|

e|-13~-14-11-13----11--------------------------------------------------------|
B|--------------14----13-14-11-13----11----9----7---6---4---2----------------|
G|--------------------------------13----11---10---8---6---5---3-4-3~---------|
D|---------------------------------------------------------------------------|
A|---------------------------------------------------------------------------|
E|---------------------------------------------------------------------------|

					    X2
e|-----------------------------------------|---------------------------------|
B|-----------------------------------------|---------------------------------|
G|-----------------------------------------|---------------------------------|
D|---3-----3---4-----4---5-----5----6-----6|---------------------------------|
A|-----3---3-----4---4-----5---5------6---6|---------------------------------|
E|-1-----1-1-2-----2-2-3-----3-3--4-----4-4|---------------------------------|

e|----------------------------------(9)-------------------9-9h11h12-13-14~---|
B|-------------------------9-9h11h12-9-11~--9h11h12-11h12--------------------|
G|--10~--10~-8h10h11-10h11---------------------------------------------------|
D|---------------------------------------------------------------------------|
A|---------------------------------------------------------------------------|
E|---------------------------------------------------------------------------|

				  X2
e|-13----13----13----13----13-----|------------------------------------------|
B|----11----11----11----11----11--|-11-11--11-11--11-11--11-11--12-12--------|
G|--------------------------------|------------------------------------------|
D|--------------------------------|------------------------------------------|
A|--------------------------------|------------------------------------------|
E|--------------------------------|------------------------------------------|

e|---------------------------------------------------------------------------|
B|-11-12-9-11----9----7---6---4---2---1---7-9----7---6---4---2---------------|
G|------------11---10---8---6---5---3---1-----10---8---6---5---3-4-4-3~------|
D|---------------------------------------------------------------------------|
A|---------------------------------------------------------------------------|
E|---------------------------------------------------------------------------|

e|---------------------------------------------------------------------------|
B|-3--2---5--9--9-7/14-15p12-------------------------------------------------|
G|---------------------------------------------------------------------------|
D|---------------------------------------------------------------------------|
A|---------------------------------------------------------------------------|
E|---------------------------------------------------------------------------|

repeat
        
Comments

No comments yet