Gametabs
Home
Tabs
Random

Together We Ride

Average rating: 4.500

4 ratings

Composer:

Tabber:

Style:

Instrument:

Created: November 22, 2013 at 12:00 AM

            Title: Together We Ride
Artist: Yuka Tsujiyoko
Album: ~ Fire Emblem 6 ~
Tabber: Ecteco
Tempo = 190
November 15 2013
Nylon Guitar


     ^     v  ^     ^  v  ^       ^     v  ^     ^  v  ^     
E ||-0--------x-----x-----x----|--1--------x-----x-----x----|
B ||-x--------x-----x-----x----|--x--------x-----x-----x----|
G ||o2--------x-----x-----x----|--3--------x-----x-----x----|
D ||o2--------x-----x-----x----|--3--------x-----x-----x----|
A ||-0-----0--x-----x--0--x----|--1-----1--x-----x--1--x----|
E ||---------------------------|----------------------------|

  ^     v  ^     ^  v  ^       ^     v  ^     ^  v  ^     
--3--------x-----x-----x----|--1--------x-----x-----x----|
--1--------x-----x-----x----|--x--------x-----x-----x----|
--0--------x-----x-----x----|--3--------x-----x-----x----|
--x--------x-----x-----x----|--3--------x-----x-----x----|
--3-----3--x-----x--3--x----|--1-----1--x-----x--1--x----|
----------------------------|----------------------------|

  ^     v  ^     ^  v  ^       ^     v  ^     ^  v  ^     
--0--------x-----x-----x----|--0--------x-----x-----x----|
--x--------x-----x-----x----|--x--------x-----x-----x----|
--2--------x-----x-----x----|--2--------x-----x-----x----|
--2--------x-----x-----x----|--2--------x-----x-----x----|
--0-----0--x-----x--0--x----|--0-----0--x-----x--0--x----|
----------------------------|----------------------------|

  ^     v  ^     ^  v  ^       ^     v  ^     ^  v  ^     
--0--------x-----x-----x----|--1--------x-----x-----x----|
--x--------x-----x-----x----|--x--------x-----x-----x----|
--2--------x-----x-----x----|--3--------x-----x-----x----|
--2--------x-----x-----x----|--3--------x-----x-----x----|
--0-----0--x-----x--0--x----|--1-----1--x-----x--1--x----|
----------------------------|----------------------------|

  ^     v  ^     ^  v  ^       ^     v  ^     ^  v  ^     
--3--------x-----x-----x----|--1--------x-----x-----x----|
--1--------x-----x-----x----|--x--------x-----x-----x----|
--0--------x-----x-----x----|--3--------x-----x-----x----|
--x--------x-----x-----x----|--3--------x-----x-----x----|
--3-----3--x-----x--3--x----|--1-----1--x-----x--1--x----|
----------------------------|----------------------------|

  ^     v  ^     ^  v  ^       ^
--0--------x-----x-----x----|--0--------0----|--0-----0--1L-1L-1L-1--5----|
--x--------x-----x-----x----|--x-------------|-----3----------------------|
--2--------x-----x-----x----|--2-------------|----------------------------|
--2--------x-----x-----x----|--2-------------|--0-----0-----0-----0-------|
--0-----0--x-----x--0--x----|--0--------0----|----------------------------|
----------------------------|----------------|----------------------------|


--0-----0--1L-1L-1L-1--5----|--0-----0h-1L-1L-1L-1--5----|
-----3----------------------|-----3----------------------|
----------------------------|----------------------------|
----------------------------|----------------------------|
--1-----1-----1-----1-------|----------------------------|
----------------------------|--3-----3-----3-----3-------|


--0--5--0--1--0--------0----|--0-----0--1L-1L-1L-1--5----|
--8--6-----3-----3--2--3----|-----3----------------------|
----------------------------|----------------------------|
----------------------------|--0-----0-----0-----0-------|
--0-----0-----0-----0-------|----------------------------|
----------------------------|----------------------------|


--0-----0--1L-1L-1L-1--5----|--0-----0--1L-1L-1L-1--5----|
-----3----------------------|-----3----------------------|
----------------------------|----------------------------|
----------------------------|----------------------------|
--1-----1-----1-----1-------|----------------------------|
----------------------------|--3-----3-----3-----3-------|


--1h-3--1h-0--1h-0--1--0----|--1h-0----------------------|
-----------------------2----|--------3-------------------|
--2-------------------------|--2--------2L-2L-2L-2L-2----|
----------------------------|--0-----0-----0-----0-------|
--0-----0-----0-----0-------|----------------------------|
----------------------------|----------------------------|


--1h-0----------------------|--1h-0-----------------5----|
--------3-------------------|--------3-------------------|
--2--------2L-2L-2L-2L-2----|-----------2L-2L-2L-2-------|
----------------------------|----------------------------|
--1-----1-----1-----1-------|--3-----3-----3-----3-------|
----------------------------|----------------------------|


--0-----------------5------|||
-----------3L-3------------|||
-----------2L-2-----------o|||
--0-----0-----0-----0-----o|||
---------------------------|||
---------------------------|||


Legend
L - tied note
x - dead note
h - hammer on/pull off
b - bend
s - slide
~ - vibrato
g - ghost note
> - accentuated note
t - trill
M - palm mute
. - staccato
P - popping (bass)
S - slapping (bass)
+ - tapping
W - wide vibrato
< - fade in
w - whammy bar
= - tremolo picking
v - brush up
^ - brush down
V - pick stroke up
n - pick stroke down


        
Comments

No comments yet