Gametabs
Home
Tabs
Random

Time is a Place

Average rating: 5.000

3 ratings

Composer:

Tabber:

Style:

Instrument:

Created: July 20, 2018 at 12:00 AM

            Finding Paradise - Time is a Place
Composed by Kan Gao
You can find the author of the cover at https://www.youtube.com/channel/UCo44HNsau4qOGG2pCrCN1pg
Tabbed by sidonis / 06.06.2018

Capo at 3rd Fret

     E  E  H        Q       E  E  Q    E  E  Q       E  E  Q    E  E  Q     
E||--------0--------3----|-----0------------------|--0--1------------------|
B||--------1-------------|--3-----0----------3----|--------3---------------|
G||--2-------------------|--0----------------0----|-------------------0----|
D||-----2----------------|------------------------|--------0-------3-------|
A||--0-------------------|----------------2-------|--1----------1----------|
E||----------------------|--3----------3----------|------------------------|


  Q    Q    E  E  E  E     E  E  Q    Q    Q       E  E  Q    H           E  E  Q    E  E  Q     
------------------------|-------------0----5----|--7----------3--------|--5----------------3----|
--3----1----1--0--------|-----------------------|--------0-------------|--------1----------1----|
--2---------------0-----|--------2--------------|-----0----------------|-----2----------2-------|
---------------------0--|-----0-----------------|----------------------|------------------------|
--0---------------------|-----------------------|----------------------|------------------------|
------------3-----------|--1--------------------|--0-------------------|--1----------1----------|


  E  E  Q    Q    Q       E  E  Q    Q    Q       E  E  Q     Q    E  S S    E  E  Q    Q    Q     
--0---------------0----|--------0--------------|--7----------10-------0-3-|--5-----0--------------|
--1----------3---------|-------------3----1----|--------0----------8------|-------------3----1----|
--------0--------------|--2--------------------|-----0--------------------|-----5-----------------|
-----2-----------------|-----3-----------------|--------------------------|--3--------------------|
--3--------------------|-----------------------|--------------------------|-----------------------|
-----------------------|--1--------------------|--0-----------------------|-----------------------|


  E  E  Q    H           E  E  Q    E  E  Q       E  E  E  E  E  E  E  E   
--7----------3--------|--5----------------3----|--3-----------------------|
--------0-------------|--------1----------1----|--------1--3--0--------1--|
-----0----------------|-----2----------2-------|--------0-----------0-----|
----------------------|------------------------|-----0-----------0--------|
----------------------|------------------------|--------------------------|
--0-------------------|--1----------1----------|--3-----------3-----------|


  E  E  E  S S E  E  S S S S    Q    E  E  S E.  E  E     E  E  E  S S E  E  S S S S  
-----------------------------|-------------------------|---------------------------0-|
--3-----3--1-3---------1---1-|--3----3--0--0-1------1--|--3-----3--1-3---------1-3---|
--------2------------0---0---|-------0-----------0-----|--------2------------0-------|
-----3------------0----------|-------------------------|-----3------------0----------|
-----------------------------|-------------0-----------|-----------------------------|
--1------------3-------------|--0----------------3-----|--1------------3-------------|


  E  E  S S E  Q    E  E     E  E  E  S S E  E  S S S S    E  E  E  S S E  S S S S S S  
--------------------------|-----------------------------|-----3-----0----------0-----0-|
--3-----3-1------------1--|--3-----3--1-3---------1---1-|--3----------3-1--1-3---1-3---|
-----2------2--2----------|--------2------------0---0---|------------------------------|
--0------------0----------|-----3------------0----------|------------------------------|
--------------------------|-----------------------------|--------2------0--------------|
--------------------3-----|--1------------3-------------|--0-------------------3-------|


  E  E  E  E  E  S E.  E     E  E  E  E  Q    E.  S    S S E  E  E  E  E  E  E   
--1-----0-----------------|-----------------------0-|---------------0-----7--8--|
--------------3----1---3--|--3--------0-------3-----|--3---1--0--1--------------|
-----2-----2-----2--------|--------2-----1----------|----2-------------5--------|
--------------------------|-----2--------2----------|---------------------------|
--------------------------|-------------------------|--0------------------------|
--1-----------1-----------|--0-----------0----------|---------------3-----------|


  E  E  E  E  Q    S E.     S S E  E  S S E  Q.        S S E  E  S S E  Q.      
--5-----------5------5---|--3---0--0--2-------------|--0-----------------------|
--------1-----1----1-----|----------------3--3------|------1--1--3---0--0------|
-----2-----2-------------|----0---------2-----------|----2---------------------|
-------------------------|------------0-------------|--------------0-----------|
-------------------------|--3-----------------------|--0-----------------------|
--1----------------------|--------------------------|------------3-------------|


  S S E  E  S S E  E   Q       E  E  E  E  H          
----------------------------|-----------------------||
--1---------0---------------|--------------1--------||
------2--2------0--0h--2----|-----------2-----------||
--------------2-------------|--------3--------------||
----3-----------------------|-----3-----------------||
--1---------0---------------|--1--------------------||




Duration Legend
---------------
W - whole
H - half
Q - quarter
E - 8th
S - 16th
T - 32nd
X - 64th
. - note dotted
|-n-|  - n-tuplets


Tablature Legend
----------------
L - tied note
x - dead note
g - grace note
(n) - ghost note
> - accentuded note
NH - natural harmonic
AH - artificial harmonic
TH - tapped harmonic
SH - semi harmonic
PH - pitch harmonic
h - hammer on
p - pull off
b - bend
br - bendRelease
pb - preBend
pbr - preBendRelease
brb - bendReleaseBend
\n/ - tremolo bar dip
\n - tremolo bar dive
-/n - tremolo bar Release up
/n\ - tremolo bar inverted dip
/n - tremolo bar return
-\n - tremolo bar Release down
S - shift slide
s - legato slide
/ -  slide into from below or out of upwards
\ -  slide into from above or out of downwards
~ - vibrato
W - wide vibrato
tr - trill
TP - tremolo picking
T - tapping
S - slap
P - pop
< - fade in
^ - brush up
v - brush down

        
Comments

No comments yet