Gametabs
Home
Tabs
Random

Shop

Average rating: No ratings

Composer:

Tabber:

Style:

Instrument:

Created: June 10, 2020 at 12:00 AM

            Menu
    Q  Q  Q     Q  Q  Q     Q  Q  Q     Q  Q  Q     Q  Q  Q     Q  Q  Q     Q  Q  Q
G|-----------|-----------|-----------|-----------|-----------|-----------|-----------|
D|-----5--5--|-----5--5--|-----5--5--|-----5--5--|-----5--5--|-----7--7--|-----5--5--|
A|--3--------|--3--------|--3--------|--3--------|--3--------|--3--------|--3--------|
E|-----------|-----------|-----------|-----------|-----------|-----------|-----------|

    Q  Q  Q     Q  Q  Q     Q  Q  Q     Q  Q  Q     Q  Q  Q     Q  Q  Q     Q  Q  Q
G|-----------|-----2--2--|-----3--3--|-----4--4--|-----------|-----------|-----------|
D|-----2--2--|--0--------|--0--------|--0--------|-----5--5--|-----5--5--|-----5--5--|
A|--0--------|-----------|-----------|-----------|-----------|--3--------|-----------|
E|-----------|-----------|-----------|-----------|--3--------|-----------|--6--------|

    Q  Q  Q     Q  Q  Q     Q  Q  Q     Q  Q  Q     Q  Q  Q     Q  Q  Q     Q  Q  Q
G|-----------|-----------|-----2--2--|-----2--2--|-----4--4--|-----1--1--|-----5--5--|
D|-----2--2--|-----2--2--|--0--------|--1--------|--2--------|--2--------|--3--------|
A|--0--------|--0--------|-----------|-----------|-----------|-----------|-----------|
E|-----------|-----------|-----------|-----------|-----------|-----------|-----------|

    Q  Q  Q     Q  Q  Q     Q  H        H.          H.          H.          Q  Q  Q
G|-----5--5--|-----------|-----r-----|--r--------|--r--------|--r--------|-----------|
D|--3--------|--------2--|--5--e-----|--e--------|--e--------|--e--------|----------*|
A|-----------|--3--5-----|-----s-----|--s--------|--s--------|--s--------|--------2-*|
E|-----------|-----------|-----t-----|--t--------|--t--------|--t--------|--3--5-----|

Duration Legend
---------------
W - whole
H - half
Q - quarter
E - 8th
S - 16th
T - 32nd
X - 64th
. - note dotted

        
Comments

No comments yet